PrimaNota.ru - самый крупный в мире бесплатный архив песенных текстов, аккордов, табулатур и нот


Skid Row - Bonehead - аккорды и текст, таба, бас-таба, видео

Регистрация Запомнить меня
Войти через:  Facebook Google Twitter Vk Yandex Mail.ru

Skid Row - Bonehead - аккорды и текст, таба, бас-таба, видео

Печатать
Просмотров: 277
Авторы: Rachel Bolan, Dave “The Snake” Sabo

Bonehead
Skid Row
		   t. See http://www..net/faq/ for more information.                     #
#-----------------------------------------------------------------------------#



BONEHEAD - SKID ROW
(Bolan, Snake)

(From the album: sUBHUMAN rACE)

Transcribed By Simon V.
 j5816632@ironbark.bendigo.latrobe.edu.au>
Arranged included & Solo transcribed By Sócrates
 socrates@dreamtheater.zzn.com>


intro riff 1 [heavy palm mute]		[light mute]
e |----------------------------------|----------------------------------|
B |----------------------------------|----------------------------------|
G |----------------------------------|----------------------------------|
D |-8-8-8-8---------5-5-5-5-7-7-7-7--|-8-8-8-8---------5-5-5-5-7-7-7-7--|
A |-6-6-6-6-7-7-7-7-3-3-3-3-5-5-5-5--|-6-6-6-6-7-7-7-7-3-3-3-3-5-5-5-5--|
E |---------5-5-5-5------------------|---------5-5-5-5------------------|

with drums,
e |----------------------------------|----------------------------------|
B |----------------------------------|----------------------------------|
G |----------------------------------|----------------------------------|
D |-8-8-8-8---------5-5-5-5-7-7-7-7--|-8-8-8-8---------5-5-5-5-7-7-7-7--|
A |-6-6-6-6-7-7-7-7-3-3-3-3-5-5-5-5--|-6-6-6-6-7-7-7-7-3-3-3-3-5-5-5-5--|
E |---------5-5-5-5------------------|---------5-5-5-5------------------|

e |----------------------------------|----------------------------------|
B |----------------------------------|----------------------------------|
G |----------------------------------|----------------------------------|
D |-8-8-8-8---------5-5-5-5-7-7-7-7--|-8-8-8-8---------5-5-5-5-7-7------|
A |-6-6-6-6-7-7-7-7-3-3-3-3-5-5-5-5--|-6-6-6-6-7-7-7-7-3-3-3-3-5-5------|
E |---------5-5-5-5------------------|---------5-5-5-5------------------|



intro riff 2
e |------------------------------|------------------------------|
B |------------------------------|------------------------------|
G |------------------------------|------------------------------|
D |-------------5-------5-5--2---|-------------5-------5-5--2---|
A |-------------5-------5-5--2---|-------------5-------5-5--2---|
E |--3h4h5\--0--3p0--0--3-3--0---|--3h4h5\--0--3p0--0--3-3--0---|

e |------------------------------|--------------------------------|
B |------------------------------|--------------------------------|
G |------------------------------|--------------------------------|
D |-------------5-------5-5--2---|-------------5-------5----4-3-2-|
A |-------------5-------5-5--2---|-------------5-------5----4-3-2-|
E |--3h4h5\--0--3p0--0--3-3--0---|--3h4h5\--0--3p0--0--3----2-1-0-|


verse 1:
e |-------------------------------|-------------------------------|
B |-------------------------------|-------------------------------|
G |-------------------------------|-------------------------------|
D |---------------------4--3--2---|---------------------4--3--2---|
A |---------------------4--3--2---|---------------------4--3--2---|
E |--0-0-0-0-0-0-0-0-0--2--1--0---|--0-0-0-0-0-0-0-0-0--2--1--0---|

e |-------------------------------|-------------------------------|
B |-------------------------------|-------------------------------|
G |-------------------------------|-------------------------------|
D |---------------------4--3--2---|--------------5-------4--3--2--|
A |---------------------4--3--2---|--------------5-------4--3--2--|
E |--0-0-0-0-0-0-0-0-0--2--1--0---|--0-0-0-0-0-0-3p0-0---2--1--0--|


e |-------------------------------|-------------------------------|
B |-------------------------------|-------------------------------|
G |-------------------------------|-------------------------------|
D |---------------------4--3--2---|---------------------4--3--2---|
A |---------------------4--3--2---|---------------------4--3--2---|
E |--0-0-0-0-0-0-0-0-0--2--1--0---|--0-0-0-0-0-0-0-0-0--2--1--0---|

e |-------------------------------|-------------------------------|
B |-------------------------------|-------------------------------|
G |-------------------------------|-------------------------------|
D |---------------------4--3--2---|-------------------------------|
A |---------------------4--3--2---|-------------------------------|
E |--0-0-0-0-0-0-0-0-0--2--1--0---|--0-0-0-0-0-0-0-0-0-0-0-0-0-0--|


e |----------------------------------|----------------------------------|
B |----------------------------------|----------------------------------|
G |----------------------------------|----------------------------------|
D |-8-8-8-8---------5-5-5-5-7-7-7-7--|-8-8-8-8---------5-5-5-5-7-7-7-7--|
A |-6-6-6-6-7-7-7-7-3-3-3-3-5-5-5-5--|-6-6-6-6-7-7-7-7-3-3-3-3-5-5-5-5--|
E |---------5-5-5-5------------------|---------5-5-5-5------------------|

e |----------------------------------|----------------------------------|
B |----------------------------------|----------------------------------|
G |----------------------------------|----------------------------------|
D |-8-8-8-8---------5-5-5-5-7-7-7-7--|-8-8-8-8---------5-5-5---4--3--2--|
A |-6-6-6-6-7-7-7-7-3-3-3-3-5-5-5-5--|-6-6-6-6-7-7-7-7-3-3-3---4--3--2--|
E |---------5-5-5-5------------------|---------5-5-5-5---------2--1--0--|

verse 2:
e |-------------------------------|-------------------------------|
B |-------------------------------|-------------------------------|
G |-------------------------------|-------------------------------|
D |---------------------4--3--2---|---------------------4--3--2---|
A |---------------------4--3--2---|---------------------4--3--2---|
E |--0-0-0-0-0-0-0-0-0--2--1--0---|--0-0-0-0-0-0-0-0-0--2--1--0---|

e |-------------------------------|-------------------------------|
B |-------------------------------|-------------------------------|
G |-------------------------------|-------------------------------|
D |---------------------4--3--2---|--------------5-------4--3--2--|
A |---------------------4--3--2---|--------------5-------4--3--2--|
E |--0-0-0-0-0-0-0-0-0--2--1--0---|--0-0-0-0-0-0-3p0-0---2--1--0--|

e |-------------------------------|-------------------------------|
B |-------------------------------|-------------------------------|
G |-------------------------------|-------------------------------|
D |---------------------4--3--2---|---------------------4--3--2---|
A |---------------------4--3--2---|---------------------4--3--2---|
E |--0-0-0-0-0-0-0-0-0--2--1--0---|--0-0-0-0-0-0-0-0-0--2--1--0---|

e |-------------------------------|-------------------------------|
B |-------------------------------|-------------------------------|
G |-------------------------------|-------------------------------|
D |---------------------4--3--2---|-------------------------------|
A |---------------------4--3--2---|-------------------------------|
E |--0-0-0-0-0-0-0-0-0--2--1--0---|--0-0-0-0-0-0-0-0-0-0-0-0-0-0--|


chorus 1:
e |------------------------------|------------------------------|
B |------------------------------|------------------------------|
G |------------------------------|------------------------------|
D |-------------5-------5-5--2---|-------------5-------5-5--2---|
A |-------------5-------5-5--2---|-------------5-------5-5--2---|
E |--3h4h5\--0--3p0--0--3-3--0---|--3h4h5\--0--3p0--0--3-3--0---|

e |------------------------------|------------------------------|
B |------------------------------|------------------------------|
G |------------------------------|------------------------------|
D |-------------5-------5-5--2---|--5---------------------------|
A |-------------5-------5-5--2---|--5---------------------------|
E |--3h4h5\--0--3p0--0--3-3--0---|--3---------------------------|

e |------------------------------|------------------------------|
B |------------------------------|------------------------------|
G |------------------------------|------------------------------|
D |-------------5-------5-5--2---|-------------5-------5-5--2---|
A |-------------5-------5-5--2---|-------------5-------5-5--2---|
E |--3h4h5\--0--3p0--0--3-3--0---|--3h4h5\--0--3p0--0--3-3--0---|

e |------------------------------|------------------------------|
B |------------------------------|------------------------------|
G |------------------------------|------------------------------|
D |-------------5-------5-5--2---|--5---------------------------|
A |-------------5-------5-5--2---|--5---------------------------|
E |--3h4h5\--0--3p0--0--3-3--0---|--3---------------------------|



pre solo riff:	(w/ palm mute)
e |-----------------------------------|-----------------------------------|
B |-----------------------------------|-----------------------------------|
G |-----------------------------------|-----------------------------------|
D |-8\7-x-x------------------5/7-x-x--|-8\7-x-x------------------5/7-x-x--|
A |-6\5-x-x-5/7-x-x-7/10-x-x-3/5-x-x--|-6\5-x-x-5/7-x-x-7/10-x-x-3/5-x-x--|
E |---------3/5-x-x-5/8--x-x----------|---------3/5-x-x-5/8--x-x----------|

e |-----------------------------------|-----------------------------------|
B |-----------------------------------|-----------------------------------|
G |-----------------------------------|-----------------------------------|
D |-8\7-x-x------------------5/7-x-x--|-8\7-x-x------------------5/7-x-x--|
A |-6\5-x-x-5/7-x-x-7/10-x-x-3/5-x-x--|-6\5-x-x-5/7-x-x-7/10-x-x-3/5-x-x--|
E |---------3/5-x-x-5/8--x-x----------|---------3/5-x-x-5/8--x-x----------|

e |----------------------------------|----------------------------------|
B |----------------------------------|----------------------------------|
G |----------------------------------|----------------------------------|
D |-8-8-8-8---------5-5-5-5-7-7-7-7--|-8-8-8-8---------5-5-5-5-7-7-7-7--|
A |-6-6-6-6-7-7-7-7-3-3-3-3-5-5-5-5--|-6-6-6-6-7-7-7-7-3-3-3-3-5-5-5-5--|
E |---------5-5-5-5------------------|---------5-5-5-5------------------|

e |----------------------------------|----------------------------------|
B |----------------------------------|----------------------------------|
G |----------------------------------|----------------------------------|
D |-8-8-8-8---------5-5-5-5-7-7-7-7--|-8-8-8-8---------5-5-5---4--3--2--|
A |-6-6-6-6-7-7-7-7-3-3-3-3-5-5-5-5--|-6-6-6-6-7-7-7-7-3-3-3---4--3--2--|
E |---------5-5-5-5------------------|---------5-5-5-5---------2--1--0--|



solo over this:
e |-------------------------------|-------------------------------|
B |-------------------------------|-------------------------------|
G |-------------------------------|-------------------------------|
D |---------------------4--3--2---|---------------------4--3--2---|
A |---------------------4--3--2---|---------------------4--3--2---|
E |--0-0-0-0-0-0-0-0-0--2--1--0---|--0-0-0-0-0-0-0-0-0--2--1--0---|

e |-------------------------------|-------------------------------|
B |-------------------------------|-------------------------------|
G |-------------------------------|-------------------------------|
D |---------------------4--3--2---|--------------5-------5-5-5-5--|
A |---------------------4--3--2---|--------------5-------5-5-5-5--|
E |--0-0-0-0-0-0-0-0-0--2--1--0---|--0-0-0-0-0-0-3p0-0---3-3-3-3--|


solo:
E-|-16^12----------12-16^12----------12-|-16^12----------12-16^12----------12-|
B-|-------15-12-15----------15-12-15----|-------15-12-15----------15-12-15----|
G-|-------------------------------------|-------------------------------------|
D-|-------------------------------------|-------------------------------------|
A-|-------------------------------------|-------------------------------------|
E-|-------------------------------------|-------------------------------------|

                           ½+
E-|-16-16-16-16-16--15--|--13---15--14^15--|-16---------------------|
B-|----15-15-15-15--14--|--12---14---------|-----17-15-14-17-15-14--|
G-|---------------------|------------------|------------------------|
D-|---------------------|------------------|------------------------|
A-|---------------------|------------------|------------------------|
E-|---------------------|------------------|------------------------|


   ~~~~~~
E-|--------------------------|----------------------------------|
B-|-------14-----------------|----------------------------------|
G-|-16-15----16-15-16-15-14--|-------14-12^13-12----------------|
D-|--------------------------|-17-14-------------14--9/12-12----|
A-|--------------------------|----------------------------------|
E-|--------------------------|----------------------------------|


Last chorus (w/ lead)
e |------------------------------|------------------------------|
B |------------------------------|------------------------------|
G |------------------------------|------------------------------|
D |-------------5-------5-5--2---|-------------5-------5-5--2---|
A |-------------5-------5-5--2---|-------------5-------5-5--2---|
E |--3h4h5\--0--3p0--0--3-3--0---|--3h4h5\--0--3p0--0--3-3--0---|

e |------------------------------|------------------------------|
B |------------------------------|------------------------------|
G |------------------------------|------------------------------|
D |-------------5-------5-5--2---|--5---------------------------|
A |-------------5-------5-5--2---|--5---------------------------|
E |--3h4h5\--0--3p0--0--3-3--0---|--3---------------------------|

e |------------------------------|------------------------------|
B |------------------------------|------------------------------|
G |------------------------------|------------------------------|
D |-------------5-------5-5--2---|-------------5-------5-5--2---|
A |-------------5-------5-5--2---|-------------5-------5-5--2---|
E |--3h4h5\--0--3p0--0--3-3--0---|--3h4h5\--0--3p0--0--3-3--0---|

e |------------------------------|------------------------------|
B |------------------------------|------------------------------|
G |------------------------------|------------------------------|
D |-------------5-------5-5--2---|--5---------------------------|
A |-------------5-------5-5--2---|--5---------------------------|
E |--3h4h5\--0--3p0--0--3-3--0---|--3---------------------------|

outro:	(Guitar 1)
e |----------------------------------|----------------------------------|
B |----------------------------------|----------------------------------|
G |---15------------12-----14--------|---15------------12-----14--------|
D |---13-----14-----10-----12--------|---13-----14-----10-----12--------|
A |----------12----------------------|----------12----------------------|
E |----------------------------------|----------------------------------|
  |									|
  |									|
  |	(Guitar 2)							|
e |----------------------------------|----------------------------------|
B |----------------------------------|----------------------------------|
G |----------------------------------|----------------------------------|
D |-------8-------------5------7-----|-------8-------------5------7-----|
A |-------6------7------3------5-----|-------6------7------3------5-----|
E |--------------5-------------------|--------------5-------------------|


	(Guitar 1)
e |----------------------------------|----------------------------------|
B |----------------------------------|----------------------------------|
G |---15------------12-----14--------|---15------------12---------------|
D |---13-----14-----10-----12--------|---13-----14-----10---------------|
A |----------12----------------------|----------12----------------------|
E |----------------------------------|----------------------------------|
  |									|
  |									|
  |	(Guitar 2)							|
e |----------------------------------|----------------------------------|
B |----------------------------------|----------------------------------|
G |----------------------------------|----------------------------------|
D |-------8-------------5------7-----|-------8----------5---------------|
A |-------6------7------3------5-----|-------6------7---3---------------|
E |--------------5-------------------|--------------5-------------------|     
Добавлено: 29.08.2013
Другие материалы по этой песне:

Страница создана 04.03.2012
http://primanota.ru/skid-row/bonehead-chords.htm
Привет, Гость.
Предлагаем пройти революционный курс по гитаре.
Подарок от PrimaNota.Ru, забирай!