PrimaNota.ru - самый крупный в мире бесплатный архив песенных текстов, аккордов, табулатур и нот


Skid Row - Another Dick In The System - таба, видео

Регистрация Запомнить меня
Войти через:  Facebook Google Twitter Vk Yandex Mail.ru

Skid Row - Another Dick In The System - таба, видео

Печатать
Просмотров: 226
Авторы: Rachel Bolan

                           ANOTHER DICK IN THE SYSTEM
                             As recorded by Skid Row
                  (From the 2006 Album REVOLUTIONS PER MINUTE)

Transcribed by Corey Hunter

 Intro
  Fast Rock Q=180   * Tune Low E down to 'D' (Drop D)
 4/4
  Gtr I
  H.      E E   +E  E E E +E  E E E     +Q   E E E E E E
|-------------|---------------------||-------------------|
|-------------|---------------------||o------------------|
|-------------|-------------------2-||--(2)------------2-|
|-------------|-------------------2-||--(2)------------2-|
|-------------|-------0-2-(2)-0---0-||o-(0)--4-4-4-----0-|
|-----------2-|-(2)-4-----------4---||-------4-4-4-1-4---|


  +Q   E E E E E E   +Q   E E E E E E   +E  E E E +E  E E E
|------------------|------------------|-------------------------||
|------------------|------------------|------------------------o||
|-(2)------------2-|-(2)--------------|-------------------2-----||
|-(2)------------2-|-(2)--------------|-------------------2-----||
|-(0)--4-4-4-----0-|-(0)--4-4-4-------|-------0-2-(2)-0---0----o||
|------4-4-4-1-4---|------4-4-4-1-4-2-|-(2)-4-----------4-------||


 Verse
  +E   E  Q  H      H    E E E E   +E  E Q  H      H    E E E E
|-----------------|--------------|---------------|---------------|
|-----------------|--------------|---------------|---------------|
|-(2)-------------|------------2-|-(2)-----------|------------2--|
|-(2)-------------|------------2-|-(2)-----------|------------2--|
|-(0)-----4-------|------------0-|-(0)---4-------|------------0--|
|-----(1)-4-------|------1-4-1---|-----1-4-------|------1-4-1----|


  +E  E Q  H      H    E E E E   +E  E Q  H      H    E E E E
|---------------|--------------|---------------|---------------|
|---------------|--------------|---------------|---------------|
|-(2)-----------|------------2-|-(2)-----------|------------2--|
|-(2)-----------|------------2-|-(2)-----------|------------2--|
|-(0)---4-------|------------0-|-(0)---4-------|------------0--|
|-----1-4-------|------1-4-1---|-----1-4-------|------1-4-1----|


  +E  E E E E E E E   E E E E +E  E +E  E
|-------------------|---------------------|
|-------------------|---------------------|
|-(2)---------------|---------------------|
|-(2)---------------|---------------------|
|-(0)---4-4-4-4-4-4-|-4-4-4-2-(2)-2-(2)-4-|
|-----1-4-4-4-4-4-4-|-4-4-4-2-(2)-2-(2)-4-|


  +E  E E E E E E E   E E E E +E  E +E  E
|-------------------|----------------------|
|-------------------|----------------------|
|-------------------|-------2-(2)-2-(2)----|
|-------------------|-------2-(2)-2-(2)----|
|-(4)-4-4-4-4-4-4-4-|-4-4-4-0-(0)-0-(0)-4--|
|-(4)-4-4-4-4-4-4-4-|-4-4-4-------------4--|


  +E  E E E E E E E   E E E E +E  E +E  E
|-------------------|---------------------|
|-------------------|---------------------|
|-------------------|---------------------|
|-------------------|---------------------|
|-(4)-4-4-4-4-4-4-4-|-4-4-4-2-(2)-2-(2)-4-|
|-(4)-4-4-4-4-4-4-4-|-4-4-4-2-(2)-2-(2)-4-|


  +E  E E E E E E E   E E E E E E E E
|-------------------|------------------||
|-------------------|------------------||
|-------------------|---------------4--||
|-------------------|---------------4--||
|-(4)-4-4-4-4-4-4-4-|-4-4-4-4-4-4-0-2--||
|-(4)-4-4-4-4-4-4-4-|-4-4-4-4-4-4-0----||


   Chorus
    +E  E E E E E E E   E E E E E E E E   +E  E Q  E E E E   +E  E Q  E E E E
||--------------------|-----------------|------------------|------------------|
||o-------------------|-----------------|------------------|------------------|
||--(4)-4-4-4-4-4-4-4-|-4-4-4-4-4-4-4---|----------------2-|-(2)------------4-|
||--(4)-4-4-4-4-4-4-4-|-4-4-4-4-4-4-4---|----------------2-|-(2)------------4-|
||o-(2)-2-2-2-2-2-2-2-|-2-2-2-2-2-2-2-4-|-(4)-4-4--------0-|-(0)---4--4-4---2-|
||--------------------|---------------4-|-(4)-4-4--1-4-1---|-----1-4--4-4-1---|


                                     1.
  +E  E E E E E E E   s E. H    E E   +E  E Q  E E E E   +Q   Q  E E E E
|-------------------|---------------|------------------|-------------------||
|-------------------|---------------|------------------|------------------o||
|-(4)-4-4-4-4-4-4-4-|-4-----------2-|-(2)------------2-|-(2)-----------4---||
|-(4)-4-4-4-4-4-4-4-|-4-----------2-|-(2)------------2-|-(2)-----------4---||
|-(2)-2-2-2-2-2-2-2-|-2-----------0-|-(0)---4--------0-|-(0)--4--4-4-4-2--o||
|-------------------|---------------|-----1-4--1-4-1---|------4--4-4-4-----||


    2.
    Q  E E E E E E   +Q   E E E E E E   Q  E E E E E E   +E  E E E +E  E E E
||-----------------|------------------|----------------|----------------------||
||o----------------|------------------|----------------|---------------------o||
||--2------------2-|-(2)------------2-|-2--------------|-------------------2--||
||--2------------2-|-(2)------------2-|-2--------------|-------------------2--||
||o-0--4-4-4-----0-|-(0)--4-4-4-----0-|-0--4-4-4-------|-------0-2-(2)-0---0-o||
||-----4-4-4-1-4---|------4-4-4-1-4---|----4-4-4-1-4-2-|-(2)-4-----------4----||



Добавлено: 27.04.2012
Другие материалы по этой песне:
  • Аккорды и текст

Страница создана 27.04.2012
http://primanota.ru/skid-row/another-dick-in-the-system-chords.htm
Привет, Гость.
Предлагаем пройти революционный курс по гитаре.
Подарок от PrimaNota.Ru, забирай!