PrimaNota.ru - самый крупный в мире бесплатный архив песенных текстов, аккордов, табулатур и нот


Skiantos - Largo Allavanguardia - бас-таба, видео

Регистрация Запомнить меня
Войти через:  Facebook Google Twitter Vk Yandex Mail.ru

Skiantos - Largo Allavanguardia - бас-таба, видео

Печатать
Просмотров: 132
Уроки эстрадного вокала в Санкт-Петербурге
SKIANTOS - LARGO ALL'AVANGUARDIA
ALBUM: MONOTONO (1977)
BASSIST: Franco "Frankie Grossolani" Villani

INTRO

E ---5----3--------------|
A ------3----------------|
D -----------------------|
G -----------------------|

VERSE


E ---5----3-----------5------3-----------|
A ------3-----3-4-5--------3-----3-4-5---|
D ---------------------------------------|
G ---------------------------------------|


CHORUS

E -----------------------------------------| X2
A ---6---------------4----------4-6--------|
D -----5-6-----6-5-----3-4-6--4------------|
G ----------4------------------------------|

E -----------------------------------------| X1
A --6-6-6-6-6-6-6-6-----------------7------|
D -------------------7-9--------9-7--------|
G ------------------------7-9-7------------|

AND BACK TO THE VERSE

E ---5----3----------------5-----3-------------|
A ------3----(2)-3-4-5--------3----(2)-3-4-5---|
D ---------------------------------------------|
G ---------------------------------------------|

OUTRO

E --5p7----7-5----5---5----------|
A ------5-------7--------7--5----|
D -------------------------------|
G -------------------------------|

LYRICS
Largo all'avanguardia pubblico di merda
Tu gli dai la stessa storia tanto lui non c'ha memoria
Sono proprio tutti tonti vivon tutti sopra i monti
Compran tutti i cantautori
come fanno i rematori
quando voglion fare i cori che profumano di fiori
Me mi piace scoreggiare non mi devo vergognare
non c'ho niente da salvare
Me mi piace giocare giocando coi giochi ne ho pochi ma buoni
Me mi piace volare facendo dei giri non brevi ma lunghi
Me mi piace scoreggiare non mi devo vergognare non c'ho niente da salvare L'avanguardia 
alternativa non fa sconti comitiva
l'avanguardia è molto dura e per questo fa paura
Fate largo all'avanguardia siete un pubblico di merda
applaudite per inerzia
ma l'avanguardia è molto seria
(Io) vado contro corrente perché sono demente
e sono ribelle con l'urlo nella pelle


JAH WOBBLE IS GOD!!!!
Добавлено: 20.07.2012
Другие материалы по этой песне:
  • Аккорды и текст

Страница создана 20.07.2012
http://primanota.ru/skiantos/largo-allavanguardia-chords.htm
Привет, Гость.
Предлагаем пройти революционный курс по гитаре.
Подарок от PrimaNota.Ru, забирай!