PrimaNota.ru - самый крупный в мире бесплатный архив песенных текстов, аккордов, табулатур и нот


Skiantos - Kinotto - таба, бас-таба, видео

Регистрация Запомнить меня
Войти через:  Facebook Google Twitter Vk Yandex Mail.ru

Skiantos - Kinotto - таба, бас-таба, видео

Печатать
Просмотров: 169
Уроки эстрадного вокала в Санкт-Петербурге
		   --------
...e... Kinotto? Qualcuno se la ricorda?
E' il brano che dà il titolo all'album dove ci sono anche "E Piaccion
le Sbarbine" e "Gelati".

Posto ciò che so, purtroppo del testo ricordo solo due strofe.

Per chi non la conoscesse si tratta di un cià-cià-cià.

Gli accordi:

A    |    D		     ...x4

Em7  |    A   |   D   |   Bm7
Em7  |    A   |   D   |   D (ciàciàcià)


[La]              [Re]
Oggi è stata gran calura
Nella mia gola c'era arsura
E sembrava d'impazzire
C'era un'afa da morire

[Mim7]           [La]
Nella notte l'ho sognato
[Re]             [Sim7]
Nella gola l'ho gustato
[Mim7]           [La]                       [Re]              
Ma costava un puttanaio quel kinotto dal lattaio.

CHA CHA CHA!

[La]               [Re]
Il kinotto è molto bello
Sale dritto nel cervello
Il kinotto mi consola
F felice la mia gola

[Mim7]           [La]
Nella notte l'ho sognato
[Re]             [Sim7]
Nella gola l'ho gustato
[Mim7]           [La]                       [Re]              
Ma costava un puttanaio quel kinotto dal lattaio.

CHA CHA CHA!

A melodia del cantato è una cosa simile:

Strofa:
 _______________      _
 |    |    |    |    |    |    |    |
 |    |    |    |    |    |    |    |
 /    /    /    /    /.   /    /    /
----------------------------------------
----------------------------------------
-2----2----2----2----0------------------
--------------------------2----0--------
------------------------------------0---
----------------------------------------
Og - gi è sta - ta gran  ca - lu - ra...

Rit:
 ________________    ________________
 |    |    |    |    |    |    |    |
 |    |    |    |    |    |    |    |
 /    /    /    /    /    /    /    /
----------------------------------------
----------------------------------------
-0----0----0----0----0---------2----2---
--------------------------4-------------
----------------------------------------
----------------------------------------
Nel - la  not - te  l'ho so - gna - to

 ________________    ________________
 |    |    |    |    |    |    |    |
 |    |    |    |    |    |    |    |
 /    /    /    /    /    /    /    /
----------------------------------------
----------------------------------------
----------------------------------------
-4----4----4----4----4----2----0--------
------------------------------------2---
----------------------------------------
Nel - la   go - la  l'ho gus - ta - to

 _____________   _____________   _____________   _____________
 |   |   |   |   |   |   |   |   |   |   |   |   |   |   |   |
 |   |   |   |   |   |   |   |   |   |   |   |   |   |   |   |
 /   /   /   /   /   /   /   /   /   /   /   /   /   /   /   /
----------------------------------------------------------------------
----------------------------------------------------------------------
-0---0---0---0---0----------------------------------------------------
---------------------4---2---2---2---2---2---2---0-------0---0--------
-----------------------------------------------------4----------------
----------------------------------------------------------------------
Ma  cos-ta-va un put-ta -na -io quel ki-not -to dal lat -ta -io

CHA CHA CHA

;-)


-----------------------------
E' IN CORSO LA VOTAZIONE DI:
IT.ANNUNCI.MUSICA - SU:
IT.NEWS.VOTAZIONI
ACCORRUOMI! CHE ASPETTI!
-----------------------------

      _ 
     |_|
     |_|
     |_|		aXe
     |_|		atavachron@fagiol.it
     |_|                 remove fag>
     |_|         also self-defined as PSP
     |=|        (Proud Steinberger Player)
    /|_|\
   /  _  \
  /  |_| °\
 /   -=- ° \  
 \_/-----\_/  

"Come si riconosce una seconda minore?"
"Basta ascoltare due chitarristi solisti che suonano all'unisono!"
	Per i non-italiani
Q - What is the definition of a minor second?
A - Two lead guitarists playing in unison.
________________________________________________________________

     
Добавлено: 22.11.2013
Другие материалы по этой песне:
  • Аккорды и текст

Страница создана 11.05.2012
http://primanota.ru/skiantos/kinotto-chords.htm
Привет, Гость.
Предлагаем пройти революционный курс по гитаре.
Подарок от PrimaNota.Ru, забирай!