PrimaNota.ru - самый крупный в мире бесплатный архив песенных текстов, аккордов, табулатур и нот


Skepta - Shutdown - таба, бас-таба, видео

Регистрация Запомнить меня
Войти через:  Facebook Google Twitter Vk Yandex Mail.ru

Skepta - Shutdown - таба, бас-таба, видео

Печатать
Просмотров: 112
-------------------------------------------------------------------------------
                             Shutdown - Shutdown
-------------------------------------------------------------------------------
Tabbed by:JoeyDurfle
E-mail:josephduffell679@live.co.uk

Tuning:E Standard

e|---------------------------------------------------------------------------|
B|---------------------------------------------------------------------------|
G|---------------------------------------------------------------------------|
D|-----------or--------------------------------------------------------------|
A|------5----1-----------------Basic Riff------------------------------------|
E|---3-------6---3-2-2-3-----------------------------------------------------|

e|---------------------------------------------------------------------------|
B|---------------------------------------------------------------------------|
G|-To make it more Aggressive make the notes power chords--------------------|
D|---------------------------------------------------------------------------|
A|---------------------------------------------------------------------------|
E|---------------------------------------------------------------------------|

e|---------------------------------------------------------------------------|
B|---------------------------------------------------------------------------|
G|-------7--3----------------------------------------------------------------|
D|---5---7--3----8---5--4--4--5----------------------------------------------|
A|---5---5--1-or-8---5--4--4--5----------------------------------------------|
E|---3-----------6---3--2--2--3----------------------------------------------|

e|---------------------------------------------------------------------------|
B|--The bells are just-------------------------------------------------------|
G|---------------------------------------------------------------------------|
D|--------------4--4--5------------------------------------------------------|
A|-----------or -------------------------------------------------------------|
E|---2--2--3----2--2--3------------------------------------------------------|

e|---------------------------------------------------------------------------|
B|---If-you-wanna-make-single-note-playing-more-fun-try-including-some-slides|
G|---------------------------------------------------------------------------|
D|---------------------------------------------------------------------------|
A|---------------------------------------------------------------------------|
E|---------------------------------------------------------------------------|





************************************

| /   slide up
| \   slide down
| h   hammer-on
| p   pull-off
| ~   vibrato
| +   harmonic
| x   Mute note
| b   Bend
| pb  Pre-bend
| br  Bend release
| pbr Pre-bend release
| brb Bend release bend

************************************
Добавлено: 18.05.2016
Вам также может быть интересно:
Другие материалы по этой песне:
  • Аккорды и текст

Страница создана 18.05.2016
http://primanota.ru/skepta/shutdown-chords.htm
Привет, Гость.
Предлагаем пройти революционный курс по гитаре.
Подарок от PrimaNota.Ru, забирай!