PrimaNota.ru - самый крупный в мире бесплатный архив песенных текстов, аккордов, табулатур и нот


Skeletonwitch - This Horrifying Force The Desire To Kill - таба, видео

Регистрация Запомнить меня
Войти через:  Facebook Google Twitter Vk Yandex Mail.ru

Skeletonwitch - This Horrifying Force The Desire To Kill - таба, видео

Печатать
Просмотров: 122
-------------------------------------------------------------------------------
         This Horrifying Force (the Desire To Kill) - Skeletonwitch
-------------------------------------------------------------------------------
Tabbed by: Griffin DeMatteo
E-mail: Griffin.d@me.com

Tuning: Standard

Guitar 1
e|------------------|------------------|------------------|------------------|
B|----4---4---------|----4---4---------|----4---4---------|----7---7---------|
G|--5---5---5---5---|--5---5---5---5---|--5---5---5---5---|--5---5---5---5---|
D|5-----------5-----|6-----------6-----|5-----------5-----|4-----------4-----|
A|------------------|------------------|------------------|------------------|
E|------------------|------------------|------------------|------------------|

Guitar 2
e|------------------|------------------|------------------|9-----------------|
B|8-----------------|9-----------------|8-----------------|7-----------------|
G|5-----------------|5-----------------|5-----------------|------------------|
D|------------------|------------------|------------------|------------------|
A|------------------|------------------|------------------|------------------|
E|------------------|------------------|------------------|------------------|

x2


Guitar 1
e|------------------|------------------|------------------|------------------|
B|----4---4---------|----4---4---------|----4---4---------|----7---7---------|
G|--5---5---5---5---|--5---5---5---5---|--5---5---5---5---|--5---5---5---5---|
D|5-----------5-----|6-----------6-----|5-----------5-----|4-----------4-----|
A|------------------|------------------|------------------|------------------|
E|------------------|------------------|------------------|------------------|

Guitar 2
e|------------------|------------------|------------------|9---------9-------|
B|8---------8-------|9---------9-------|8---------8-------|-----7---------7--|
G|-----5---------5--|-----5---------5--|-----5---------5--|------------------|
D|------------------|------------------|------------------|------------------|
A|------------------|------------------|------------------|------------------|
E|------------------|------------------|------------------|------------------|

x4


Guitar 1
e|3----3----3----4--|3----3----3----4--|3----3----3----3--|2----2----2----2--|
B|1----1----1----2--|1----1----1----2--|1----1----1----1--|0----0----0----0--|
G|------------------|------------------|------------------|------------------|
D|------------------|------------------|------------------|------------------|
A|------------------|------------------|------------------|------------------|
E|------------------|------------------|------------------|------------------|

Guitar 2
e|------------------|------------------|------------------|------------------|
B|------------------|------------------|------------------|------------------|
G|------------------|------------------|------------------|------------------|
D|5----5----5----6--|5----5----5----6--|5----5----5----5--|4----4----4----4--|
A|3----3----3----3--|3----3----3----3--|3----3----3----3--|4----4----4----4--|
E|------------------|------------------|------------------|2----2----2----2--|

x8


Guitar 1
e|3-----------------|------------------|------------------|------------------|
B|------------------|------------------|------------------|------------------|
G|------------------|------------------|------------------|------------------|
D|------------------|------------------|------------------|------------------|
A|------------------|------------------|------------------|------------------|
E|------------------|------------------|------------------|------------------|

Guitar 2
e|3-----------------|------------------|------------------|------------------|
B|------------------|------------------|------------------|------------------|
G|------------------|------------------|------------------|------------------|
D|5-----------------|------------------|------------------|------------------|
A|3-----------------|------------------|------------------|------------------|
E|------------------|------------------|------------------|------------------|

x1


Guitar 1
e|------------------|------------------|------------------|------------------|
B|------------------|------------------|------------------|------------------|
G|------------------|------------------|------------------|------------------|
D|------------------|3333--------------|------------------|------------------|
A|--------5555------|----333366665555--|--------55555555--|--------66665555--|
E|33336666----6666--|------------------|33333333----------|33336666----------|

Guitar 2
e|------------------|------------------|------------------|------------------|
B|------------------|------------------|------------------|------------------|
G|------------------|------------------|------------------|------------------|
D|------------------|------------------|------------------|------------------|
A|5-----------------|3-----------------|5-------8---------|--------66665555--|
E|3-3333333333333333|1-1111111111111111|3-3333--6-6666----|33336666----------|

x4


Guitar 1
e|3-333-333-333-333-|333-333-33--------|3-333-333-333-333-|333-33------------|
B|3-333-333-333-333-|333-333-33--------|3-333-333-333-333-|333-33------------|
G|3-323-323-323-323-|323-323-32--------|3-323-323-323-323-|323-32------------|
D|------------------|----------3530----|------------------|------------------|
A|------------------|--------------3531|------------------|--------4444444---|
E|------------------|------------------|------------------|--------2222222---|

Guitar 2
e|------------------|------------------|------------------|------------------|
B|------------------|------------------|------------------|------------------|
G|------------------|----------3530----|------------------|------------------|
D|5-555-555-555-555-|555-555-55----3530|5-555-555-555-555-|555-55------------|
A|5-555-555-555-555-|555-555-55--------|5-555-555-555-555-|555-55--4444444---|
E|3-333-333-333-353-|333-333-33--------|3-333-333-333-353-|333-33--2222222---|

x2


Guitar 1&2
e|------------------|------------------|------------------|------------------|
B|------------------|------------------|------------------|------------------|
G|------------------|------------------|------------------|------------------|
D|--3-2-------------|5-4---4-3---3-----|------------5-4---|4-3---3-----------|
A|2-1-0-------------|3-2---2-1---1-2---|------------3-2---|2-1---1-2---------|
E|0-----0-0-0-0-2-3-|----x-----0---0---|0-0-0-0-2-3-----x-|----0---0-0-0-0-0-|

e|------------------|------------------|------------------|
B|------------------|------------------|------------------|
G|------------------|------------------|------------------|
D|----5-4---4-3---3-|----------3-3-3---|------------------|
A|----3-2---2-1---1-|2---------1-1-1---|-3-3-3-3-3-3------|
E|2-3-----x-----0---|0-0-0-0-0---------|-1-1-1-1-1-1------|

x2


Guitar 1&2
e|------------------|------------------|------------------|
B|------------------|------------------|------------------|
G|------------------|------------10-10-|10---10-10--------|
D|9-------------7-9-|------------10-10-|10---10-10--------|
A|7-------------5-7-|------------8--8--|8----8--8---------|
E|0-x-x-x-x-x-x---0-|x-x-x-x-x-x-------|------------------|

e|------------------|------------------|------------------|
B|------------------|------------7-7-7-|--7-7-------------|
G|------------------|------------8-8-8-|--8-8-------------|
D|9-------------7-9-|------------8-8-8-|--8-8-------------|
A|7-------------5-7-|------------6-6-6-|--6-6-------------|
E|0-x-x-x-x-x-x---0-|x-x-x-x-x-x-------|------------------|

x1


Guitar 1&2
e|------------------|------------------|------------------|------------------|
B|------------------|------------------|------------------|-------7-7-7---7-7|
G|------------------|------------------|------------------|-------8-8-8---8-8|
D|9-------------7-9-|-----------10-9-10|-12-10--10-9-7-9--|10-9---8-8-8---8-8|
A|7-------------5-7-|-----------8-7-8--|-10-8---8--7-5-7--|8--7---6-6-6---6-6|
E|0-x-x-x-x-x-x---0-|x-x-x-x-x-x-------|------------------|------------------|

x4


Guitar 1
e|------------------|------------------|------------------|------------------|
B|------------------|------------------|------------------|------------------|
G|-------------3333-|-------------5555-|------------------|------------------|
D|5555553555555-----|5555553555555-----|33333313333335555-|-7--7--7--7--7-7-7|
A|------------------|------------------|------------------|-5--5--5--5--5-5-5|
E|------------------|------------------|------------------|------------------|

Guitar 2
e|3-3-33-3-3-3-33-33|3-3-33-3-3-3-33-33|1-1-11-1-1-1-11-11|------------------|
B|3-3-33-3-3-3-33-33|4-4-44-4-4-4-44-44|1-1-11-1-1-1-11-11|------------------|
G|3-3-33-3-3-3-33-33|5-5-55-5-5-5-55-55|2-2-22-2-2-2-22-22|------------------|
D|5-5-55-5-5-5-55-55|5-5-55-5-5-5-55-55|3-3-33-3-3-3-33-33|-3--3--3--32-2-5-5|
A|5-5-55-5-5-5-55-55|3-3-33-3-3-3-33-33|3-3-33-3-3-3-33-33|-1--1--1--10-0-3-3|
E|3-3-33-3-3-3-33-33|------------------|1-1-11-1-1-1-11-11|------------------|

x4


Guitar 1
e|3----3----3----4--|3----3----3----4--|3----3----3----3--|2----2----2----2--|
B|1----1----1----2--|1----1----1----2--|1----1----1----1--|0----0----0----0--|
G|------------------|------------------|------------------|------------------|
D|------------------|------------------|------------------|------------------|
A|------------------|------------------|------------------|------------------|
E|------------------|------------------|------------------|------------------|

Guitar 2
e|------------------|------------------|------------------|------------------|
B|------------------|------------------|------------------|------------------|
G|------------------|------------------|------------------|------------------|
D|5----5----5----6--|5----5----5----6--|5----5----5----5--|4----4----4----4--|
A|3----3----3----4--|3----3----3----4--|3----3----3----3--|2----2----2----2--|
E|------------------|------------------|------------------|------------------|

x8


Guitar 1
e|------------------|------------------|------------------|------------------|
B|------------------|------------------|------------------|------------------|
G|------------------|------------------|------------------|------------------|
D|5-----------------|------------------|------------------|------------------|
A|3-----------------|------------------|------------------|------------------|
E|------------------|------------------|------------------|------------------|

Guitar 2
e|3-----------------|------------------|------------------|------------------|
B|------------------|------------------|------------------|------------------|
G|------------------|------------------|------------------|------------------|
D|------------------|------------------|------------------|------------------|
A|------------------|------------------|------------------|------------------|
E|------------------|------------------|------------------|------------------|

x1


Guitar 1
e|------------------|------------------|------------------|------------------|
B|----4---4---------|----4---4---------|----4---4---------|----7---7---------|
G|--5---5---5---5---|--5---5---5---5---|--5---5---5---5---|--5---5---5---5---|
D|5-----------5-----|6-----------6-----|5-----------5-----|4-----------4-----|
A|------------------|------------------|------------------|------------------|
E|------------------|------------------|------------------|------------------|

Guitar 2
e|------------------|------------------|------------------|9-----------------|
B|8-----------------|9-----------------|8-----------------|7-----------------|
G|5-----------------|5-----------------|5-----------------|------------------|
D|------------------|------------------|------------------|------------------|
A|------------------|------------------|------------------|------------------|
E|------------------|------------------|------------------|------------------|

x1

Guitar 1
e|------------------|------------------|------------------|------------------|
B|----4---4---------|----4---4---------|----4---4---------|----7---7---------|
G|--5---5---5---5---|--5---5---5---5---|--5---5---5---5---|--5---5---5---5---|
D|5-----------5-----|6-----------6-----|5-----------5-----|4-----------4-----|
A|------------------|------------------|------------------|------------------|
E|------------------|------------------|------------------|------------------|

Guitar 2
e|------------------|------------------|------------------|9-----------------|
B|8-----------------|9-----------------|8-----------------|7-----------------|
G|5-----------------|5-----------------|5-----------------|------------------|
D|------------------|------------------|------------------|------------------|
A|------------------|------------------|------------------|------------------|
E|------------------|------------------|------------------|------------------|

Guitar 3
e|15----------------|14-15-14-11-------|11-13-11-8--------|9-----------------|
B|------------------|------------------|------------------|------------------|
G|------------------|------------------|------------------|------------------|
D|------------------|------------------|------------------|------------------|
A|------------------|------------------|------------------|------------------|
E|------------------|------------------|------------------|------------------|

x2


Guitar 1
e|------------------|------------------|------------------|------------------|
B|----4---4---------|----4---4---------|----4---4---------|----7---7---------|
G|--5---5---5---5---|--5---5---5---5---|--5---5---5---5---|--5---5---5---5---|
D|5-----------5-----|6-----------6-----|5-----------5-----|4-----------4-----|
A|------------------|------------------|------------------|------------------|
E|------------------|------------------|------------------|------------------|

Guitar 2
e|------------------|------------------|------------------|9---------9-------|
B|8---------8-------|9---------9-------|8---------8-------|-----7---------7--|
G|-----5---------5--|-----5---------5--|-----5---------5--|------------------|
D|------------------|------------------|------------------|------------------|
A|------------------|------------------|------------------|------------------|
E|------------------|------------------|------------------|------------------|

Guitar 3
e|15----------------|14-15-14-11-------|11-13-11-8--------|15-14-------------|
B|16----------------|---------13-------|13----------------|8-----------------|
G|------------------|------------------|------------------|------------------|
D|------------------|------------------|------------------|------------------|
A|------------------|------------------|------------------|------------------|
E|------------------|------------------|------------------|------------------|

x1

Great song, great band.

This Horrifying Force (the Desire To Kill)
Добавлено: 06.08.2015
Другие материалы по этой песне:

Страница создана 06.08.2015
http://primanota.ru/skeletonwitch/this-horrifying-force-desire-to-kill-chords.htm
Привет, Гость.
Предлагаем пройти революционный курс по гитаре.
Подарок от PrimaNota.Ru, забирай!