PrimaNota.ru - самый крупный в мире бесплатный архив песенных текстов, аккордов, табулатур и нот


Skeletonwitch - Repulsive Salvation - таба, видео

Регистрация Запомнить меня
Войти через:  Facebook Google Twitter Vk Yandex Mail.ru

Skeletonwitch - Repulsive Salvation - таба, видео

Печатать
Просмотров: 229
-------------------------------------------------------------------------------
                             Repulsive salvation - skeleton witch
-------------------------------------------------------------------------------
Tabbed by: Anthony childs
Email: blondant@hotmail.co.uk
email me if you think there are any mistakes k

Tuning: drop d
intro repeat 4 times
e|---------------------------------------------------|
B|---------------------------------------------------|
G|---------------------------------------------------|
D|---------------------------------------------------|
A|-10tp-7tp-9tp-5tp-5tp-7tp-9tp-10tp-10tp-9tp-4tp----|
D|---------------------------------------------------|
verse 1
|------------------------------------------------|
|------------------------------------------------|
|------------------------------------------------|
|------------------------------------------------|
|-----4tp-5tp-----7tp-5tp------------------------|
|-4tp---------4tp--------------------------------|
verse 2 (muted)
|-----------------------------------------|
|-----------------------------------------|
|-----------------------------------------|
|-----------------------------------------|
|-10tp-7tp-9tp-5tp-5tp-7tp-9tp-10tp-------|times 2
|-----------------------------------------|
also muted
|-----------------------------------------------|
|-----------------------------------------------|
|-----------------------------------------------|
|-----------------------------------------------|
|-12tp-9tp-10tp-7tp-9tp-10tp-12tp---------------|
|-----------------------------------------------|
also muted
|--------------------------------------|
|--------------------------------------|
|--------------------------------------|
|--------------------------------------|
|-14tp-10tp-12tp-9tp-9tp-10tp-12tp-----|
|--------------------------------------|
verse 3 (the 9 bit needs rhythem listen to song for that)
|--------------------------------------------------|
|--------------------------------------------------|
|--------------------------------------------------|
|-10-0-10-9-9-9-9-9--------------------------------|
|-10-0-10-9-9-9-9-9-----------------------|times 2-|
|-10-0-10-9-9-9-9-9--------------------------------|
verse 4
|------------------------------------------------|
|------------------------------------------------|
|------------------------------------------------|
|------------------------------------------------|
|------------------------------------------------|
|-2-3-5-3-2-5p-3p-2---------------------|times 8-|
solo 1 (sound near enough perfect)
|-----------------------------------------------------|
|-----------------------------------------------------|
|-9v-7h-9p-7------------------------------------------|
|------------9h-10p-9-7h-9p-5/4---11v-12p-11-9/-16-11v|
|-----------------------------------------------------|
|-----------------------------------------------------|
vesre 1 again
verse 4 i cannot work out sorry
solo 2 (it sounds ok)
|------------------------------------------------------------------|
|------------------------------------------------------------------|
|-16h-19p-16-14h-17p-14-12h-15p-12-9h-13p-9-12tp-9tp-11tp-7tp-9tp--|
|------------------------------------------------------------------|
|------------------------------------------------------------------|
|------------------------------------------------------------------|

|-----------------------------------------------------|
|-----------------------------------------------------|
|-15bend-15bend-15-14-------14-15bend-15bend----------|
|---------------------17-14-------------------17-14---|
|-----------------------------------------------------|
|-----------------------------------------------------|

|-----------------------------------------------------|
|-----------------------------------------------------|
|-----------------------------------------------------|
|-----------------------------------------------------|
|----------------------------14bend-14bend-12-14-15---|
|-14tp-12tp-14tp-12tp-14h-15--------------------------|

|---------------------------------------------|
|---------20-19-15-17-------------------------|
|------12-------------------------------------|
|----12---------------------------------------|
|--12-----------------------------------------|
|12-------------------------------------------|
verse2 again
outro
|----------------------------------------------------|
|----------------------------------------------------|
|-----9-9-9-----7-7-7-----6-6-6-times 2-----|times 3-|
|---9---------7---------6----------------------------|
|-7---------7---------7------------------------------|
|----------------------------------------------------|
last time
|-------------------------6----|
|-------------------------6----|
|-----9-9-9-----7-7-7-----6----|
|---9---------7---------6------|
|-7---------7---------7--------|
|------------------------------|

| /  slide up
| \  slide down
| h  hammer-on
| p  pull-off
| ~  vibrato
| +  harmonic
| x  Mute note
| v  vibrato
| tp tremelo pick
===============================================================================
Добавлено: 21.07.2012
Другие материалы по этой песне:
  • Аккорды и текст

Страница создана 21.07.2012
http://primanota.ru/skeletonwitch/repulsive-salvation-chords.htm
Привет, Гость.
Предлагаем пройти революционный курс по гитаре.
Подарок от PrimaNota.Ru, забирай!