PrimaNota.ru - самый крупный в мире бесплатный архив песенных текстов, аккордов, табулатур и нот


Skeletonwitch - My Skin Of Deceit - таба, видео

Регистрация Запомнить меня
Войти через:  Facebook Google Twitter Vk Yandex Mail.ru

Skeletonwitch - My Skin Of Deceit - таба, видео

Печатать
Просмотров: 225
Artist: Skeletonwitch
Title: My Skin of Deceit
Album: Forever Abomination
Transcribed by: Kenzo Aku

      
|----------------------------------|-----------------------------------|
|----------------------------------|-----------------------------------|
|----------------9--------9--------|9----------------9--------9--------|
|2-----------9-10--10-9-10--10-9-10|--10-9-------9-10--10-9-10--10-9-10|
|0---0-0-0-0-----------------------|-------12--------------------------|
|----------------------------------|-----------------------------------|
☼ 
    
|-----------------------------------|------------------------------------------------|
|-----------------------------------|------------------------------------------------|
|9----------------9--------9--------|------------------------------------------------|
|--10-9-------9-10--10-9-10--10-9---|------------------------13-13-13-13-------------|
|------12-------------------------12|11-11-11-11-14-14-14-14-------------10-10-10-10-|
|-----------------------------------|------------------------------------------------|
☼ 
    
|--------------------------------|--------------------------------|
|--------------------------------|--------------------------------|
|----------------109-7-----------|----------------109-7-----------|
|9---------------------109-7-10--|9---------------------109-7-10--|
|7---7-7-7-7-7-7-------------8---|7---7-7-7-7-7-7-------------8---|
|--------------------------------|--------------------------------|
 ☼
     
|--------------------------------|--------------------------------|
|--------------------------------|--------------------------------|
|----------------109-7-----------|--------------------------------|
|9---------------------109-7-10--|9-----------10--9-------12--10--|
|7---7-7-7-7-7-7-------------8---|7---7-7-7-7-8---7---7-7-10--8---|
|--------------------------------|--------------------------------|
 ☼
    
|--------------------------------|--------------------------------|
|--------------------------------|--------------------------------|
|--------------------------------|--------------------------------|
|10--------9---------10-12-10-9-10--|------9---------10-121-09-10-|
|--------------------------------|--------------------------------|
|--------------------------------|--------------------------------|
☼ 
       
|--------------------------------|----------------------------------|
|--------------------------------|----------------------------------|
|--------------------------------|--------12--11--------------12----|
|--9---------10-12-10-9-10--------9-|----------------------------11-|
|--------------------------------|----------------------------------|
|--------------------------------|----------------0-0-0-0-0-0-------|
☼ 
     
|--------------------------------|-----------------------------------|
|--------------------------------|-----------------------------------|
|------------12--------------12--|---------------------------------12|
|------------11--------------11--|---------------------------------11|
|--------------------------------|-----------------------------------|
|0-0-0-0-0-0-----0-0-0-0-0-0-----|12-11/-11-10/-10-9/9-0-0-0-0-0-0---|
☼ 

DONE
Добавлено: 04.12.2013
Другие материалы по этой песне:
  • Аккорды и текст

Страница создана 04.12.2013
http://primanota.ru/skeletonwitch/my-skin-of-deceit-chords.htm
Привет, Гость.
Предлагаем пройти революционный курс по гитаре.
Подарок от PrimaNota.Ru, забирай!