PrimaNota.ru - самый крупный в мире бесплатный архив песенных текстов, аккордов, табулатур и нот


Skegss - Heart Attack - таба, бас-таба, видео

Регистрация Запомнить меня
Войти через:  Facebook Google Twitter Vk Yandex Mail.ru

Skegss - Heart Attack - таба, бас-таба, видео

Печатать
Просмотров: 70
Новый альбом группы 'Черный Кузнец' по культовому сериалу 'Сверхъестественное'!
[Intro/Verse riff]

e|-5--5-5-5-5---4--4-4-4-4---2--2-2-2-2---4--4-4-4-4--|
B|-2--2-2-2-2---2--2-2-2-2---3--3-3-3-3---3--3-3-3-3--|
G|-2--2-2-2-2---2--2-2-2-2---2--2-2-2-2---2--2-2-2-2--|
D|----------------------------------------------------|
A|----------------------------------------------------|
E|----------------------------------------------------|

e|-2--2-2-2-2---4--4-4-4-4---0-0-0-2-2-2-4-2-0-0-4--|
B|-3--3-3-3-3---3--3-3-3-3---0-0-0-0-0-0-0-0-0-0-0--|
G|-2--2-2-2-2---2--2-2-2-2---1-1-1-1-1-1-1-1-1-1-1--|
D|--------------------------------------------------|
A|--------------------------------------------------|
E|--------------------------------------------------|


[Chorus]

e|-2--2-2-2-2---4--4-4-4-4---5--5-5-5-5---2--5-2-2-2--|
B|-3--3-3-3-3---5--5-5-5-5---2--2-2-2-2---3--3-3-3-3--|
G|-2--2-2-2-2---4--4-4-4-4---2--2-2-2-2---2--2-2-2-2--|
D|----------------------------------------------------|
A|----------------------------------------------------|
E|----------------------------------------------------|


[Outro]

e|-------5---------------4--------------2--------------4--------|
B|---2-----2---2-----2-----2---2----3-----3---3----3-----3---3--|
G|-2---2-----2-----2---2-----2----2---2-----2----2---2-----2----|
D|--------------------------------------------------------------|
A|--------------------------------------------------------------|
E|--------------------------------------------------------------|

e|-------2---------------4---------0-0-0-2-2-2-4-2-0-0-4--5|
B|---3-----3---3-----3-----3---3---0-0-0-0-0-0-0-0-0-0-0--2|
G|-2---2-----2-----2---2-----2-----1-1-1-1-1-1-1-1-1-1-1--2|
D|---------------------------------------------------------|
A|---------------------------------------------------------|
E|---------------------------------------------------------|


[intro/verse riff]

my mind's intact but i don't know how to work it
you're givin me a heart attack, yea you're makin me nervous
stop bein slack cause i don't deserve it
love is pretty wack, i think that we all learn this


[chorus]

my heart is achin cause i'm so lovesick
and you keep takin all the love from it
you suck my blood like a vampire and it stops pumpin
but when you give me your love it starts thumpin
do do do do do do do do do do do do do do 
do do do do do do do do do do do
^(only play the first two chords from the chorus riff here then go back into the verse riff)


[intro/verse riff]

my mind's intact but i don't know how to work it
you're givin me a heart attack, yea you're makin me nervous
stop bein slack cause i don't deserve it
love is pretty wack, i think that we all learn this


[chorus]
my heart is achin cause i'm so lovesick
and you keep takin all the love from it
you suck my blood like a vampire and it stops pumpin
but when you give me your love it starts thumpin
do do do do do do do do do do do do do do 
do do do do do do do do do do do
^(only play the first two chords from the chorus riff here then go into the outro)


[outro riff]
Добавлено: 21.05.2018
Другие материалы по этой песне:
  • Аккорды и текст

Страница создана 07.06.2017
http://primanota.ru/skegss/heart-attack-chords.htm
Привет, Гость.
Предлагаем пройти революционный курс по гитаре.
Подарок от PrimaNota.Ru, забирай!