PrimaNota.ru - самый крупный в мире бесплатный архив песенных текстов, аккордов, табулатур и нот


Skegss - Eat It - таба, видео

Регистрация Запомнить меня
Войти через:  Facebook Google Twitter Vk Yandex Mail.ru

Skegss - Eat It - таба, видео

Печатать
Просмотров: 22
Уроки эстрадного вокала в Санкт-Петербурге
-------------------------------------------------------------------------------
                             EAT IT - SKEGSS
-------------------------------------------------------------------------------
Tabbed by:
E-mail:

Intro:

e|---------------------------------------------------------------------------|
B|---------------------------------------------------------------------------|
G|---------------------------------------------------------------------------|
D|---------------------------------------------------------------------------|
A|-12-12-11-9-7-9-9-7-----7---12-11-9-7-9-9-7-7-----7-12-12-11-9-7-9-9-7-9-11|
E|--------------------9-9-----------------------9-9--------------------------|

e|---------------------------------------------------------------------------|
B|---------------------------------------------------------------------------|
G|---------------------------------------------------------------------------|
D|---------------------------------------------------------------------------|
A|-12-12-12-12-12------------------------------------------------------------|
E|-----------------12-12-12-12-12-12-12-12-----------------------------------|

Добавлено: 16.06.2016
Другие материалы по этой песне:
  • Аккорды и текст

Страница создана 16.06.2016
http://primanota.ru/skegss/eat-it-chords.htm
Привет, Гость.
Предлагаем пройти революционный курс по гитаре.
Подарок от PrimaNota.Ru, забирай!