PrimaNota.ru - самый крупный в мире бесплатный архив песенных текстов, аккордов, табулатур и нот


Ske48 - Bukiyou Taiyou - аккорды и текст, видео

Регистрация Запомнить меня
Войти через:  Facebook Google Twitter Vk Yandex Mail.ru

Ske48 - Bukiyou Taiyou - аккорды и текст, видео

Печатать
Просмотров: 157
Уроки эстрадного вокала в Санкт-Петербурге
Bukiyou Taiyou
Ske48
-------------------------------------------------------------------------------
                             Bukiyou Taiyou - SKE48
-------------------------------------------------------------------------------
Tabbed by:AE_Chris
E-mail:aetherion@f-m.fm

Tuning:EADGBe
Chords used: 
A    x02220
B    x24442
C5   x355xx
C#5  x466xx
E    022100
G#m  455444


Intro
e|-----4--------7-------4------------|-----4--------7------5------5----4--|
B|----------4h5--------------4----5--|----------4h5------7---7------------|
G|--4----------------4---------------|--4---------------------------------|
D|-----------------------------------|------------------------------------|
A|-----------------------------------|------------------------------------|
E|-----------------------------------|------------------------------------|

e|-----4--------7-------4------------|-----4--------7------5-----5---4----|
B|----------4h5-------------4---5---4|----------4h5------7---7-----------7|
G|--4----------------4---------------|--4---------------------------------|
D|-----------------------------------|------------------------------------|
A|-----------------------------------|------------------------------------|
E|-----------------------------------|------------------------------------|
                                                           * h = hammer-on
Verse 1
    E
    ASUFARUTO no netsu de
    G#m
    machi wa nobosete
    C#5
    minna SUROOMOOSHON
    A                   B                 
    kimi no jitensha ga yukkuri chikadzuku
    E
    WANPIISU no hana ga
    G#m
    kaze ni maiagatte
    C#5
    KYUN to saseru yo
    A                 B                    E
    bokutachi wa nani ka hajimaru no ka naa

    E          G#m
    suki na no ni
    G#m     C#5
    shiriatte
    C#5     A B
    nagasugiru

Verse 2
    E
    "umi e ikitai" tte
    G#m
    kimi ga iidasu kara
    C#5
    tomodachi no mama de
    A               B
    umi e itte nani wo sureba ii?

    E
    boku wa aikawarazu
    G#m
    shisen awasezu
    C#5
    kuchi ga katte ni
      A                  B                 A
    hoshii SUNIIKAA no hanashi wo shite iru
    A         B                 C#5    B
    yoko wo BASU ga toorisugita shunkan
        A                  B
    sarigenaku kimi wo kabau

Chorus 1
           E
    boku wa
    E             B
    bukiyou taiyou
    B                   C#5
    tada kimi no soba de
    C#5      B           
    terashiteru dake da
    A         B
    kotoba ni dekiyashinai
    E               B
    shoukyoku taiyou
    B     C5
    koi suru kisetsu ga
    C#5      B
    modokashii kanji de
    A        B
    JIRIJIRI ATSUI dake da
    E        G#m
    suki dakedo
    G#m     C#5
    sukisugite
     C#5               A       B       E
    (massugu ni wa sou kimi wo mirenai)
             G#m
    kore ijou
    G#m       C#5
    chikadzukenai
     C#5                A        B      E
    (doko made demo sou tsudzuku aozora)

Verse 3   
                     G#m
    bouhatei no hashi
    G#m                   C#5
    futari koshikakenagara
    C#5
    kakigoori tabete
        A                        B                 E
    "ha ga shimiru" to ka 'komekami ga itai" to ka...
    E
    shiokaze ni fukare
    G#m
    nami wo mite iraretara
    C#5
    kore mo ii ka na
    A                    B
    kimi no ichiban chikaku ni irunda kara
    A       B                C#5
    sonna boku no yowaki misukashite
        A                   B
    togaraseta kimi no kuchibiru

Chorus 2
           E
    boku wa
                  B
    bukiyou taiyou
                    C#5
    deatta toki kara
              B
    koko de moeru dake
    A     B       E
    jitto ugokenai
    E             B
    okubyou taiyou
    B    C5
    chikaku ni ittara
    C#5      B
    daiji na kimi made
    A      B             E
    kiechaisou de dame da
    E          G#m
    suki na no ni
    G#m      C#5
    suki dakedo
     C#5               A       B          E
    (kono kyorikan sou gikochi nai hodo...)
    E          G#m
    suki na no ni
    G#m     C#5 
    suki nanda
     C#5             A       B
    (kono kankei sou seishun SAMAARABU)

Bridge

e|------4-------7---5--4-----4-------|------4--------------4-4-----------|
B|------------------------7----------|----------7-------7----------------|
G|--6-------7------------------------|--6-----------4--------------------|
D|-----------------------------------|-----------------------------------|
A|-----------------------------------|-----------------------------------|
E|-----------------------------------|-----------------------------------|

e|--/9---11-12-11------------------9-|-----------------------------------|
B|----------------12--9---------9----|-12--10--9--10-12---14---12--14-16-|
G|-----------------------11--9-------|-----------------------------------|
D|-----------------------------------|-----------------------------------|
A|-----------------------------------|-----------------------------------|
E|-----------------------------------|-----------------------------------|
                                                              * / = slide
e|-------12---16---14----------------|
B|--12-------------------------------|
G|-----------------------------------|
D|-----------------------------------|
A|-----------------------------------|
E|-----------------------------------|

Repeat Chorus 1

Outro

e|------7----------4-----------------|----4--------7------5--------------|
B|--4h5-----------------4----5-------|---------4h5------7---7---4---5----|
G|--------------4--------------------|-4---------------------------------|
D|-----------------------------------|-----------------------------------|
A|-----------------------------------|-----------------------------------|
E|-----------------------------------|-----------------------------------|
                                                           * h = hammer-on

This is my first tablature, so please let me know if anything isn't quite right! 
Special thanks to Om(white48) for doing 90% of the heavy-lifting on this one :)
Добавлено: 27.07.2015
Другие материалы по этой песне:
  • Аккорды и текст

Страница создана 27.07.2015
http://primanota.ru/ske48/bukiyou-taiyou-chords.htm
Привет, Гость.
Предлагаем пройти революционный курс по гитаре.
Подарок от PrimaNota.Ru, забирай!