PrimaNota.ru - самый крупный в мире бесплатный архив песенных текстов, аккордов, табулатур и нот


Skaters - This Much I Care - таба, видео

Регистрация Запомнить меня
Войти через:  Facebook Google Twitter Vk Yandex Mail.ru

Skaters - This Much I Care - таба, видео

Печатать
Просмотров: 138
Уроки эстрадного вокала в Санкт-Петербурге
-------------------------------------------------------------------------------
                             This Much I Care - SKATERS
-------------------------------------------------------------------------------
Tabbed by:
E-mail:

Tuning:Standard:EADGBe

Beginning solo comes in after bass intro:

e|---------------------------------------------------------------------------|
B|---------------------------------------------------------------------------|
G|--15-15-15-15-15-----------------------------------------------------------|
D|-------------------13-15~15~15~--------------------------------------------|
A|---------------------------------------------------------------------------|
E|---------------------------------------------------------------------------|

e|---------------------------------------------------------------------------|
B|---------------------------------------------------------------------------|
G|--15-15-15-15-15-----------------------------------------------------------|
D|-------------------13-15-14-13-11------------------------------------------|
A|-----------------------------------11-11-13~-------------------------------|
E|---------------------------------------------------------------------------|

e|---------------------------------------------------------------------------|
B|---------------------------------------------------------------------------|
G|--15-15-15-15-15--------------------15~---15~---15\------------------------|
D|-------------------13-15~15~15~--------14~---14~---------------------------|   x2.
A|---------------------------------------------------------------------------|
E|---------------------------------------------------------------------------|

Verse:

e|---------------------------------------------------------------|
B|---6------7------7------7--------------------------------------|
G|---7------6------8------6--------------------------------------|
D|---8------8------6------8--------------------------------------|   x5.
A|---------------------------------------------------------------|
E|---------------------------------------------------------------|

Repeat Intro Solo:

e|---------------------------------------------------------------------------|
B|---------------------------------------------------------------------------|
G|--15-15-15-15-15-----------------------------------------------------------|
D|-------------------13-15~15~15~--------------------------------------------|
A|---------------------------------------------------------------------------|
E|---------------------------------------------------------------------------|

e|---------------------------------------------------------------------------|
B|---------------------------------------------------------------------------|
G|--15-15-15-15-15-----------------------------------------------------------|
D|-------------------13-15-14-13-11------------------------------------------|
A|----------------------------------11-11-13~--------------------------------|
E|---------------------------------------------------------------------------|

e|---------------------------------------------------------------------------|
B|---------------------------------------------------------------------------|
G|--15-15-15-15-15--------------------15~---15~---15\------------------------|
D|-------------------13-15~15~15~--------14~---14~---------------------------|   x2.
A|---------------------------------------------------------------------------|
E|---------------------------------------------------------------------------|

Verse:

e|---------------------------------------------------------------|
B|---6------7------7------7--------------------------------------|
G|---7------6------8------6--------------------------------------|
D|---8------8------6------8--------------------------------------|   x4.
A|---------------------------------------------------------------|
E|---------------------------------------------------------------|

After the verse the intro solo leads into the regular solo:

e|-----------------------------------------------------------------------------|
B|-----------------------------------------------------------------------------|
G|--15-15-15-15-15-------------------------------------------------------------|
D|----------------13-15~15~15~-------------------------------------------------|
A|-----------------------------------------------------------------------------|
E|-----------------------------------------------------------------------------|

e|-----------------------------------------------------------------------------|
B|-----------------------------------------------------------------------------|
G|--15-15-15-15-15-------------------------------------------------------------|
D|----------------13-15-14-13-11-----------------------------------------------|
A|-----------------------------------11-13~------------------------------------|
E|-----------------------------------------------------------------------------|

e|---------------------------------------------------------------------------|
B|---------------------------------------------------------------------------|
G|--15-15-15-15-15--------------------15~-----15~-----15\-----15-14-13-15-14-|
D|----------------13-15~15~15~------------14~-----14~------------------------|
A|---------------------------------------------------------------------------|
E|---------------------------------------------------------------------------|

e|---------------------------------------------------------------------------|
B|-----------------------------16-15-14-16-15-14-16-15-14-16-15-14-16-15-14--|
G|13-15-14-13-15-14-13-15-14-13----------------------------------------------|
D|---------------------------------------------------------------------------|
A|---------------------------------------------------------------------------|
E|---------------------------------------------------------------------------|

e|------------------------------18~---18~---18\------------------------------|
B|--16-16b18--16--14-16-17-18------17~---17~---------------------------------|
G|---------------------------------------------------------------------------|
D|---------------------------------------------------------------------------|
A|---------------------------------------------------------------------------|
E|---------------------------------------------------------------------------|

Then the weird trippy part comes and it gets freaky.

After the acid trip, the outro solo comes:

e|----------------------------18b20--18---18~---18~---18\--------------------|
B|-----------------16b18--16-----------------17~---17~-----------------------|
G|------15b17--15------------------------------------------------------------|
D|---------------------------------------------------------------------------|
A|---------------------------------------------------------------------------|
E|---------------------------------------------------------------------------|

************************************

| /   slide up
| \   slide down
| h   hammer-on
| p   pull-off
| ~   vibrato
| +   harmonic
| x   Mute note
| b   Bend
| pb  Pre-bend
| br  Bend release
| pbr Pre-bend release
| brb Bend release bend

************************************
Добавлено: 13.08.2015
Другие материалы по этой песне:
  • Аккорды и текст

Страница создана 13.08.2015
http://primanota.ru/skaters/this-much-i-care-chords.htm
Привет, Гость.
Предлагаем пройти революционный курс по гитаре.
Подарок от PrimaNota.Ru, забирай!