PrimaNota.ru - самый крупный в мире бесплатный архив песенных текстов, аккордов, табулатур и нот


Skatalites - Youre Wondering Now - аккорды и текст, таба, видео

Регистрация Запомнить меня
Войти через:  Facebook Google Twitter Vk Yandex Mail.ru

Skatalites - Youre Wondering Now - аккорды и текст, таба, видео

Печатать
Просмотров: 274
Youre Wondering Now
Skatalites
		   "You're Wondering Now"

As performed by the Skatalites on
the album "Hi-Bop Ska!"

BsC = Play barre chord B and slide to chord C

======================================================================
Lyrics
Guitar
e---3-3--5--3-----------------------------------------------
B---5-5--5--5--5------5---5--3-----5---3---1-----1-1-1--1---
G--------------5------5---5--4-----5---4---2-----2-2-2--0---
D-----------------------------------------------------------
A-----------------------------------------------------------
E-----------------------------------------------------------
Bass
G-----------------2-0-2-0-2---------------------------------
D------------------------------0---0---0--------------------
A--------------3-----------------3---3-------3-0-3-0-3--3---
E----------------------------3-------------1----------------
======================================================================
Lyrics
Guitar
e---3-3--5--3-----------------------------------------------
B---5-5--5--5--5------5---5--3-----5---3---1-----1-1-1--1---
G--------------5------5---5--4-----5---4---2-----2-2-2--0---
D-----------------------------------------------------------
A-----------------------------------------------------------
E-----------------------------------------------------------
Bass
G---2-0-2-0-2-----2-0-2-0-2---------------------------------
D------------------------------0---0---0--------------------
A--------------3-----------------3---3-------3-0-3-0-3--3---
E----------------------------3-------------1----------------
======================================================================
Lyrics
       You're Wondering Now.  What to do.
Guitar
   BsC                                 G
Bass
G------2-0-2-0-2-----------2-0-2-0-2---------
D--------------------------------------------
A----3------------------3--------------------
E--------------------------------------3-----
======================================================================
Lyrics
    Now you know this is the end
Guitar
             F               C
Bass
G----------------------------------
D--0---0---0-----------------------
A----3---3-----3-0-3-0-3-----3-----
E------------1---------------------
=======================================================================
The song pretty much continues on that way until....


======================================================================
Lyrics
        Curtain     has  fal.....len.

Guitar
        F
Bass
G---------------------------------------
D------------0---0---0-----0---0---0----
A--------------3---3---------3---3------
E-------1----------------1--------------
======================================================================
Lyrics
        Now  You're on your own

Guitar
        C
Bass
G------------3-0-3-0-3------------3-0-3-0-3-
D-------------------------------------------
A-------3-------------------3---------------
E-------------------------------------------

======================================================================
Lyrics
        You won't re....turn again.

Guitar
        F
Bass
G---------------------------------------
D------------0---0---0-----0---0---0----
A--------------3---3---------3---3------
E-------1----------------1--------------
======================================================================

Lyrics
        Forever you must pay.
Guitar
        Dm               G
Bass
G-------------------------------------------
D--------------7---------5-5----------------
A-------5---8-----8-------------------2-2-3-
E-----------------------------3-3-5-5-------
======================================================================

There is my interpretation!

If you have any corrections or anything, e-mail me at:
pancreas@vt.edu     
Добавлено: 24.10.2013
Вам также может быть интересно:
Другие материалы по этой песне:
  • Аккорды и текст

Страница создана 01.03.2012
http://primanota.ru/skatalites/youre-wondering-now-chords.htm
Привет, Гость.
Предлагаем пройти революционный курс по гитаре.
Подарок от PrimaNota.Ru, забирай!