PrimaNota.ru - самый крупный в мире бесплатный архив песенных текстов, аккордов, табулатур и нот


Skatalites - Latino Goes Ska - аккорды и текст, бас-таба, видео

Регистрация Запомнить меня
Войти через:  Facebook Google Twitter Vk Yandex Mail.ru

Skatalites - Latino Goes Ska - аккорды и текст, бас-таба, видео

Печатать
Просмотров: 137
Уроки эстрадного вокала в Санкт-Петербурге
Latino Goes Ska
Skatalites
Bass

Intro:		[-----------5---------5-------------------
----------------8--------6---------8-----
----6--------------------------8---------
----------------------------------------- } REPEAT 4 TIMES

(A)		---------------------------------------3-----------3--
1111--------3333-----------3----------3---------------
----------1------------1----11---------1--------------
------------------------------------------------------ } 3 TIMES

(B)		---------------------------------------------------------------------------
1111---1111------3333-------33-------------1111---------1111-----33--------
------------------------------------------------11----------------------11-

------------------------------------------333------333--
-111-----111---111-----111------------------------------
--------------------------------------------------------
--------------------------------------------------------] } REPEAT

FOR THE SOLOS ITS THE SAME THING LISTED HERE
[------------------------------------------
1111----1111------3333--------------------
------------------------------------1111--
------------------------------------------]

THIS IS IT HEAR THE SONG AND PLAY
Добавлено: 26.03.2014
Другие материалы по этой песне:
  • Аккорды и текст

Страница создана 02.06.2012
http://primanota.ru/skatalites/latino-goes-ska-chords.htm
Привет, Гость.
Предлагаем пройти революционный курс по гитаре.
Подарок от PrimaNota.Ru, забирай!