PrimaNota.ru - самый крупный в мире бесплатный архив песенных текстов, аккордов, табулатур и нот


Skatalites - Guns Of Navaronne - бас-таба, видео

Регистрация Запомнить меня
Войти через:  Facebook Google Twitter Vk Yandex Mail.ru

Skatalites - Guns Of Navaronne - бас-таба, видео

Печатать
Просмотров: 46
  Guns of Navaronne by The Skatalites
This is in the key of A#
Have fun, and Ska Ska Ska!
(EDIT 7/7/15) the letters above (you know, the notes!) work very well for your ska guitar, some parts are slightly off, but it is a good substitute for a great band and song


|     A#      A#      A#      A#  |     D#      D#      A#      A#  |
|---------------------------------|---------------------------------|
|---------3-----------------------|-1-------1---------------3-------|
|-1---------------1-------1-------|-----------------1-----------1---|
|---------------------------------|---------------------------------|

|     D#      D#      A#      A#  |     Dm      Dm      G       G   |
|-----------------3---------------|-----------------0---------------|
|-1-------1---------------1-------|-0-------0---------------0-------|
|---------------------------------|---------------------------------|
|---------------------------------|---------------------------------|

|     Cm      Cm      Cm      Cm  |     Cm      Cm      Cm      Cm  |
|-----------------0---------------|---------------------------------|
|---------------------------------|-----------------3---------------|
|-3-------3-----------------------|-3-------3-----------------------|
|--------------------------3------|-------------------------3-------|

|     Cm      Cm      Cm      Cm  |     Cm      Cm      Cm      F   |
|-----------------0---------------|-----------------0-----------2---|
|---------------------------------|-----------------------0-3-------|
|-3-------3-----------------------|-3-------3-----------------------|
|-------------------------3-------|---------------------------------|

|     A#      A#      A#      A#  |     D#      D#      A#      A#  |
|-3-------------------------------|---------3---0---3---0-----------|
|---------3---1---0---1---3-------|-1-----------------------3-------|
|-----------------------------1---|-----------------------------1---|
|---------------------------------|---------------------------------|

|     D#      D#      A#      A#  |     Dm      Dm      G       G   |
|---------3---0---3---0-----------|-----------------0---------------|
|-1-----------------------3---0---|-3-------0---------------0-------|
|---------------------------------|---------------------------------|
|---------------------------------|---------------------------------|

|     Cm      Cm      Cm      Cm  |     Cm      Cm      F       F   |
|-----------------0---------------|---------------------------------|
|---------------------------------|-----------------3-------3-------|
|-3-------3-----------------------|-3-------3-----------------------|
|-------------------------3-------|---------------------------------|

|     A#      A#      A#      A#  |     A#      A#      A#      A#  |
|-3-------------------------------|---------3-----------------------|
|---------3---0-------0-----------|-------------3---0-------3---1---|
|-------------------------3-------|-1-------------------1-----------|
|---------------------------------|---------------------------------|




|     Dm      Dm      Dm      Dm  |     Gm      Gm      Dm      Dm  |
|---------------------------------|-0-------0---------------0-------|
|-0-------0-------0-------0-------|-------------0-------0-----------|
|---------------------------------|---------------------------------|
|---------------------------------|---------------------------------|

|     Dm      Dm      Gm      Gm  |     Dm      Dm      Gm      Gm  |
|-----------------0---------------|---------0-------0-------0-------|
|-0-------0---------------0-------|-0-------------------------------|
|---------------------------------|---------------------------------|
|---------------------------------|---------------------------------|

|     Dm      Dm      Dm      Dm  |     Gm      Gm      Dm      Dm  |
|---------------------------------|-0-------0---0---0---7---7-------|
|-0-------0-------0-------0-------|---------------------------------|
|---------------------------------|---------------------------------|
|---------------------------------|---------------------------------|

|     A#      A#      C       C   |     Dm      Dm      Dm      Dm  |
|---------3-----------------------|---------------------------------|
|-0---------------2---------------|-3-------0-------0-------0-------|
|-------------------------3-------|---------------------------------|
|---------------------------------|---------------------------------|

|     Dm      Dm      Dm      Dm  |     Dm      Dm      Dm      Dm  |
|---------7---7-----------7-------|---------7---------------7-------|
|-0---------------0---0-----------|-0---0-------0---0---------------|
|---------------------------------|---------------------------------|
|---------------------------------|---------------------------------|




|     A#      A#      A#      A#  |     D#      D#      A#      A#  |
|-3-------------------------------|---------3-------0---------------|
|---------3---0-------0---3-------|-1-----------------------3-------|
|-----------------1-----------1---|---------------------------------|
|---------------------------------|---------------------------------|

|     D#      D#      A#      A#  |     Dm      Dm      G       G   |
|-----------------3---------------|-----------------0---------------|
|-1-------1---------------1-------|-0-------0---------------0-------|
|---------------------------------|---------------------------------|
|---------------------------------|---------------------------------|

|     Cm      Cm      Cm      Cm  |     Cm      Cm      Cm      Cm  |
|---------0-----------------------|---------------------------------|
|-----------------1---------------|---------------------------------|
|-3-------------------------------|-3-------3-------2-------3-------|
|-------------------------3-------|---------------------------------|

|     Cm      Cm      F       F   |     A#      A#      A#      A#  |
|---------------------------------|---------------------------------|
|-----------------3---------------|---------------------------------|
|-3-------3-----------------------|-1-------------------------------|
|-------------------------1-------|---------------------------------|
          
Добавлено: 27.12.2015
Другие материалы по этой песне:
  • Аккорды и текст

Страница создана 27.12.2015
http://primanota.ru/skatalites/guns-of-navaronne-chords.htm
Привет, Гость.
Предлагаем пройти революционный курс по гитаре.
Подарок от PrimaNota.Ru, забирай!