PrimaNota.ru - самый крупный в мире бесплатный архив песенных текстов, аккордов, табулатур и нот


Skankin Pickle - Make A Change - аккорды и текст, таба, бас-таба, видео

Регистрация Запомнить меня
Войти через:  Facebook Google Twitter Vk Yandex Mail.ru

Skankin Pickle - Make A Change - аккорды и текст, таба, бас-таба, видео

Печатать
Просмотров: 117
Уроки эстрадного вокала в Санкт-Петербурге
Make A Change
Skankin Pickle



Date: Thu, 1 Jan 1998 10:07:25 -0500 (EST)
From: wbknox@unity.ncsu.edu
Subject: CRD: make_a_change.crd by Skankin' Pickle

Song: Make a Change
Band: Skankin' Pickle
Album: The Green Album (1996)
Written by Michael Bruce Lee Park
Transcribed by Luke Knox (lukeknox@iname.com)

Intro:Lead guitar bends these strings, while second guitar plays the 
barre chords with the strings in parentheses.
E--------------------------------------
B--------------------------------------
G--(11)-(11)-(10)------(9)-(11)--------
D---9b--(11)-(10)-(11)-(9)-(11)--------
A--------9b---8b--(11)--7b--9b--(10)---
E------------------9b------------8b----

(Verse chords):
   B    Eb   E   F#   G#
E--2----3----4----6---11---------
B--4----4----5----7---12---------
G--4----3----4----6---13---------  (Repeated)
D--4------------------13---------
A--------------------------------
E--------------------------------

(Chorus chords):
E-----------------
B-----------------
G-----------------
D---4---6----2----
A---4---6----2----
E---2---4----0----
    F#  G#   E      (Repeated)

Lyrics: (my interpretation)
(Verse)
If I had the money there would be a ...
(Chorus)
Wishin' I was doing somethi...
(Verse)
So many times I think this world, it has no ....
(Repeat chorus)

And that's it   I hope this tab sounds right to you. E-mail me with your 
comments, questions, changes, etc.  

Luke


Добавлено: 18.12.2013
Другие материалы по этой песне:
  • Аккорды и текст

Страница создана 30.05.2012
http://primanota.ru/skankin-pickle/make-a-change-chords.htm
Привет, Гость.
Предлагаем пройти революционный курс по гитаре.
Подарок от PrimaNota.Ru, забирай!