PrimaNota.ru - самый крупный в мире бесплатный архив песенных текстов, аккордов, табулатур и нот


Skankin Pickle - Gas In My Car - аккорды и текст, таба, бас-таба, видео

Регистрация Запомнить меня
Войти через:  Facebook Google Twitter Vk Yandex Mail.ru

Skankin Pickle - Gas In My Car - аккорды и текст, таба, бас-таба, видео

Печатать
Просмотров: 197
Gas In My Car
Skankin Pickle



Date: Thu, 22 Jan 1998 06:44:02 -0500 (EST)
From: wbknox@unity.ncsu.edu
Subject: CRD: gas_in_my_car.crd by Skankin' Pickle

Song: Gas In My Car
Band: Skankin' Pickle
Album: The Green Album (1996)
Written by Devlin
Transcribed by Luke Knox (lukeknox@iname.com) e-mail me 

Skankin' Pickle is a great band, and they crammed a lot of good songs 
onto the one album of theirs that I have, the legendary Green Album. 
Enjoy this one:

Intro: (distorted)
E-------------------------------------------
B-------------------------------------------
G------------6-6--6---5-5--5---3-3--3-------
D---6-6--6---6-6--6---5-5--5---3-3--3---6---
A---6-6--6---4-4--4---3-3--3---1-1--1---6---
E---4-4--4------------------------------4---
    G#       C#       C        Bb       G#

Verse/Chorus:
    G#  C#  C   Bbm
E---4---4---3---1---
B---4---6---5---2---
G---5---6---5---3---
D---6---6---5---3---
A-------------------
E-------------------

Bridge:
    C   Fm
E---3---1---
B---5---1---
G---5---1---
D---5---3---
A-------3---
E-------1---

Outro: Same as intro.

Lyrics:
(Verse) I put some gas in my car and I'm ....
(Bridge) Monday morning ....
(Chorus) I'll give you an alibi, I, ...
(Verse) Radio's playing and we all know .....
(Bridge)
(Chorus)
(Verse) I see the red lights on top of ....
(Bridge)
(Chorus)
(Outro) I put some gas ..... (4x)

That's the song  Let me know how I'm doing, and send me all your 
compliments, changes, requests, flames, etc. 

Thanks

Luke


Добавлено: 13.08.2013
Другие материалы по этой песне:
  • Аккорды и текст

Страница создана 07.04.2012
http://primanota.ru/skankin-pickle/gas-in-my-car-chords.htm
Привет, Гость.
Предлагаем пройти революционный курс по гитаре.
Подарок от PrimaNota.Ru, забирай!