PrimaNota.ru - самый крупный в мире бесплатный архив песенных текстов, аккордов, табулатур и нот


Skank - Esquecimento - аккорды и текст, видео

Регистрация Запомнить меня
Войти через:  Facebook Google Twitter Vk Yandex Mail.ru

Skank - Esquecimento - аккорды и текст, видео

Печатать
Просмотров: 56
Esquecimento
Skank
Skank
Esquecimento 
Violão: Principal205.054 exibições 
Tom: B (com acordes na forma de G)
Capotraste na 4ª casa
Intro:

D6(11)  C7M  D6(11)  C7M

Passagem 1:

G  C/G  G  C/G  G  C/G  G

Intro:

Parte 1


  D6(11)             C7M
E|------------------------------------------|
B|-----0-------0----------0-------0---------|
G|-0-----0-------0----------0-------0-------|
D|-4-4-----4-4--------2-2-----2-2-----2-----|
A|-5---------------5--3-------3-------3-----|
E|------------------------------------------|


Parte 3


   D6(11)              C7M
E|------------------------------------------|
B|-----0-------0------------0---------------|
G|-------0-------0---0--------0-------------|
D|-4-4-----4-4-----4----2-2-----2-----------|
A|-5-------5-------5----3-------------------|
E|------------------------------------------|


Passagem 1:

Parte 1


   G    C/G  G         C/G  G
E|------------------------------------------|
B|---0-0-1-1-0-0----0-0-1-1-0-0-------------|
G|---0-0-0-0-0-0----0-0-0-0-0-0-------------|
D|---0-0-2-2-0-0----0-0-2-2-0-0-------------|
A|------------------------------------------|
E|-3--------------3-------------------------|

   ↓ ↓ ↑ ↓ ↑ ↓ ↑  ↓ ↓ ↑ ↓ ↑ ↓ ↑

Parte 2


   G    C/G  G      G
E|------------------------------------------|
B|---0-0-1-1-0-0----0-0-0-0-0---------------|
G|---0-0-0-0-0-0----0-0-0-0-0---------------|
D|---0-0-2-2-0-0----0-0-0-0-0---------------|
A|------------------------------------------|
E|-3--------------3-------------------------|

   ↓ ↓ ↑ ↓ ↑ ↓ ↑  ↓ ↓ ↑ ↑ ↓ ↑

Primeira Parte:

    Am7
Enquanto você para e espera

Eu ando, invado
   G
Eu abro a porta e entro
   Am7
Enquanto você cala quieta

Eu brigo, eu falo
    G
Eu berro, eu enfrento

Interlúdio:  

Am7

G  C/G  G  C/G  G  C/G  G

Segunda Parte:

    Am7
No canto dessa sala emperra
                    G
Eu ligo, acerto, eu erro

E eu tento

   Am7
Enquanto você fala espera
                  G
Aflito eu fico e digo

Eu não entendo

Pré-refrão:

     Am7
Não sei por que você
   G
Insiste em demorar
    Am7
Eu quero que você
      G  C/G  G  C/G  G  C/G  G
Diga já

Refrão:

C7M
    Que seja no Japão

Jamaica ou Jalapão
    G
No Jaraguá ou na Guiné
Am7
    De charrete ou caminhão
                          G
De carro ou caminhando a pé
       Am7  G  Am7
Eu vou

G  C/G  G  C/G  G  C/G  G

Interlúdio:

Am7

G  C/G  G  C/G  G  C/G  G

Terceira Parte:

    Am7
No banco sem guitarra elétrica
               G
Com violão escrevo esse lamento
      Am7
Pois como molha a água a pedra
                     G
Meu canto encerra o seu esquecimento

Pré-refrão:

     Am7
Não sei por que você
   G
Insiste em demorar
    Am7
Eu quero que você
      G  C/G  G  C/G  G  C/G  G
Diga já

Refrão:

C7M
    Que seja no Japão

Jamaica ou Jalapão
    G
No Jaraguá ou na Guiné
Am7
    De charrete ou caminhão
                          G
De carro ou caminhando a pé
       Am7  G  Am7  G
Eu vo
Добавлено: 29.04.2016
Другие материалы по этой песне:
  • Аккорды и текст

Страница создана 29.04.2016
http://primanota.ru/skank/esquecimento-chords.htm
Привет, Гость.
Предлагаем пройти революционный курс по гитаре.
Подарок от PrimaNota.Ru, забирай!