PrimaNota.ru - самый крупный в мире бесплатный архив песенных текстов, аккордов, табулатур и нот


Skanatra - Fly Me To The Moon - бас-таба, видео

Регистрация Запомнить меня
Войти через:  Facebook Google Twitter Vk Yandex Mail.ru

Skanatra - Fly Me To The Moon - бас-таба, видео

Печатать
Просмотров: 191
-------------------------------------------------------------------------------
                             FLY ME TO THE MOON - Skanatra
-------------------------------------------------------------------------------
Tabbed by: thickfreakness_
E-mail: avendjersi@gmail.com

Tuning: Standard

This is not dead on, but it works for me...

Intro:

G|------------------|------------------|------------------|---------------------|
D|------------------|------------------|------------------|---------------------|
A|----------5~------|----------3~------|------------------|--5/7----------------|
E|--5~--------------|--3~--------------|--0~------5~------|----0~------5~-------|

G|------------------|------------------|------------------|---------------------| 
D|------------------|---------5/10~----|------------------|---------------------|
A|--5~--------------|--3~--------------|--5~--------------|--3~-----------------|
E|----------3~------|------------------|----------3~------|----------(0)----(3)-| play 2 times

* the (0) and the (3) are played only the first time.

Verse:

note: a) this part is a bit faster, and if you are playing this tune on YouTube while learning,
      I would suggest turning down the speed on the video...
      b) the parts in the brackets go a split second faster, if you know how to play it go ahead
      if you don't just skip the brackets, the other tunes go on the same speed as the rest

G|----------------------------------|---------------------------------|
D|--------------3-4-5-3---------5---|-3---------3---------------------|
A|----------5-7---------7-5---7---7-|---7-5-------7-5-7-5-------------|
E|--5-7-8-8-----------------8-------|-------8-7-----------8-7-5-7-8-8-|

G|--------------------------------------------------------------------|
D|------3-4-5-3---------5---5--10-7-5--------3(p5h3)------------------|
A|--5-7---------7-5---7--(7)-(7)------7-5-7---------5-----------------|
E|------------------8---------------------------------7-8-10-7-8~-----| play 3 times.

Fourth time, the second part goes a bit different:

G|----------------------------------|---------------------------------|
D|--------------3-4-5-3---------5---|-3---------3---------------------|
A|----------5-7---------7-5---7---7-|---7-5-------7-5-7-5-------------|
E|--5-7-8-8-----------------8-------|-------8-7-----------8-7-5-7-8-8-|

G|------------------------------------|
D|------3-4-5-3-----------------------|
A|--5-7---------7-5-7-7-7p5-----------|
E|--------------------------8-5-7-8-8-| play  2 times.

And the last one:                           And then the ending:

G|---------------------|     The            |--9-7-5-9-7-5-9-------------|
D|------3-5------------|   "I LOVE YOU!"    |-----------------10~--------|
A|--5-7-----5-5--------|     Pause          |--7-----7-----7-------------|
E|---------------------|                    |-----------------8~---------|

Man this writing is hard... This is my first tab, so be gentle with the corrections xD


| /  slide up
| \  slide down
| h  hammer-on
| p  pull-off
| ~  vibrato
| +  harmonic
| x  Mute note
===============================================================================
Добавлено: 05.07.2015
Другие материалы по этой песне:
  • Аккорды и текст

Страница создана 05.07.2015
http://primanota.ru/skanatra/fly-me-to-moon-chords.htm
Привет, Гость.
Предлагаем пройти революционный курс по гитаре.
Подарок от PrimaNota.Ru, забирай!