PrimaNota.ru - самый крупный в мире бесплатный архив песенных текстов, аккордов, табулатур и нот


Skalmold - Hel - таба, видео

Регистрация Запомнить меня
Войти через:  Facebook Google Twitter Vk Yandex Mail.ru

Skalmold - Hel - таба, видео

Печатать
Просмотров: 201
-------------------------------------------------------------------------------
                             HEL - Skálmöld
-------------------------------------------------------------------------------
Tabbed by: HawkEye7
E-mail: Kingkrank666@hotmail.com

My first tab! Since nobody uploaded any Skálmöld song, here I bring you the 
intro (that also appears several times in the middle of the song) of my favourite one!

Tuning: Standard

* - Palm Mute

e|---------|
B|---------|
G|---------|
D|---------|
A|---------|
E|-0-0-0-0-|    X7
   * * * *

e|---------------------------|
B|---------------------------|
G|---------------------------|
D|-----------9-----------8---|
A|-----------7-----------6---|
E|---0-0-0-0-----0-0-0-0-----|    X4
     * * * *     * * * *
NOTE: In the original song, these two chords are played with a keyboard.

e|------------------------------------|
B|------------------------------------|
G|------------------------------------|
D|-----------9-9-9-9----------8-8-8-8-|
A|-----------7-7-7-7----------6-6-6-6-|
E|---0-0-0-0----------0-0-0-0---------|    X4
     * * * *          * * * * 


************************************

| /   slide up
| \   slide down
| h   hammer-on
| p   pull-off
| ~   vibrato
| +   harmonic
| x   Mute note
| b   Bend
| pb  Pre-bend
| br  Bend release
| pbr Pre-bend release
| brb Bend release bend

************************************
Добавлено: 26.04.2014
Другие материалы по этой песне:
  • Аккорды и текст

Страница создана 26.04.2014
http://primanota.ru/skalmold/hel-chords.htm
Привет, Гость.
Предлагаем пройти революционный курс по гитаре.
Подарок от PrimaNota.Ru, забирай!