PrimaNota.ru - самый крупный в мире бесплатный архив песенных текстов, аккордов, табулатур и нот


Skalmold - Gleipnir - таба, видео

Регистрация Запомнить меня
Войти через:  Facebook Google Twitter Vk Yandex Mail.ru

Skalmold - Gleipnir - таба, видео

Печатать
Просмотров: 87
Band links:
http://skalmold.is/
http://www.facebook.com/skalmold
http://twitter.com/SkalmoldIceland

-------------------------------------------------------------------------------
                             Gleipnir - Skálmöld
-------------------------------------------------------------------------------
Tabbed by: Bjarki Fannar Snorrason
E-mail: bjarkifannar@gmail.com

Tuning: Standard

e|---------------12-10------------------------------|
B|---------10-12-------12-10----10-12---------------|
G|-9-11-12-------------------12---------------------|
D|--------------------------------------------------|
A|--------------------------------------------------|
E|--------------------------------------------------|

e|---------------12-10------------------------------|
B|---------10-12-------12-10----12------------------|
G|-9-11-12-------------------12---------------------|
D|--------------------------------------------------|
A|--------------------------------------------------|
E|--------------------------------------------------|

e|---------------12-10------------------------------|
B|---------10-12-------12-10----10-12---------------|
G|-9-11-12-------------------12---------------------|
D|--------------------------------------------------|
A|--------------------------------------------------|
E|--------------------------------------------------|

e|---------------12-10------------------------------|
B|---------10-12-------12-10------------------------|
G|-9-11-12-------------------12-9----9--------------|
D|--------------------------------12----------------|
A|--------------------------------------------------|
E|--------------------------------------------------|
Добавлено: 20.12.2015
Другие материалы по этой песне:
  • Аккорды и текст

Страница создана 20.12.2015
http://primanota.ru/skalmold/gleipnir-chords.htm
Привет, Гость.
Предлагаем пройти революционный курс по гитаре.
Подарок от PrimaNota.Ru, забирай!