PrimaNota.ru - самый крупный в мире бесплатный архив песенных текстов, аккордов, табулатур и нот


Ska-p - Welcome To Hell - текст песни, таба, бас-таба, видео

Регистрация Запомнить меня
Войти через:  Facebook Google Twitter Vk Yandex Mail.ru

Ska-p - Welcome To Hell - текст песни, таба, бас-таба, видео

Печатать
Просмотров: 276

                              Ska-P - Welcome to Hell



Band : Ska-P
Album : Que corra la voz
Lied : Welcome to Hell


Intro: (0:0)
---------------------------------------|
---------------------------------------|
---------------------------------------|  (2X)
---------------------------------------|
-0-0-3-5---0-0-3-5---0-0-3-5-7-0-6-0---|
---------------------------------------|

(0:5)
-5-5-5-5-5-5--6-6-6--5-5-5-5-5-5--3-3-3---|
-5-5-5-5-5-5--7-7-7--5-5-5-5-5-5--3-3-3---|
-5-5-5-5-5-5--8-8-8--5-5-5-5-5-5--3-3-3---|
------------------------------------------|
------------------------------------------|
------------------------------------------|

-5-5-5-5-5-5--6-6-6--5-5-5-5-5-5----------|
-5-5-5-5-5-5--7-7-7--5-5-5-5-5-5----------|
-5-5-5-5-5-5--8-8-8--5-5-5-5-5-5---8--8---|
-----------------------------------8--8---|
-----------------------------------6--6---|
------------------------------------------|


(Trumpet playing)
---------------------------|
---------------------------|
-9---12-11-10-9--7h8-7h8---|
---------------------------|
---------------------------|
---------------------------|

---------------------------|
---------------------------|
-9---12-11-10-9----9-9-----|
---------------------------|
---------------------------|
---------------------------|

(0:14)
------------------------------|
------------------------------|
------------------------------|
------------------------------|
-7-7-0-7-6-6-0-6-5-5-0-5-3----|
----------------------------3-|
                                            (2x)
-------------------------------|
-------------------------------|
------------------------5------|
------------------------5--5---|
-7-7-0-7-6-6-0-6-5-5-0--3--5---|
---------------------------3---|

Verse:
-5-5-5-5-5-5--6-6-6--5-5-5-5-5-5--3-3-3---|
-5-5-5-5-5-5--7-7-7--5-5-5-5-5-5--3-3-3---|
-5-5-5-5-5-5--8-8-8--5-5-5-5-5-5--3-3-3---|
------------------------------------------|
------------------------------------------|
------------------------------------------|         (2x)

-5-5-5-5-5-5--6-6-6------------|
-5-5-5-5-5-5--7-7-7------------|
-5-5-5-5-5-5--8-8-8------8-8---|
-------------------------8-8---|
-------------------------6-6---|
-------------------------------|


Refrain (0:45):
----------------------------|
----------------------------|
----------------------------|    (2x)
--8-7-5-5----8-7-5-5-5--8---|
--6-5-3-5----6-5-3-5-5--8---|
--------7----------7-7--6---|

-----------|
-----------|
-----------|
--8-7-5-5--|
--6-5-3-5--|
--------7--|


Bridge:(0:55)
-5-5-5-5-5-5--6-6-6--5-5-5-5-5-5--3-3-3---|
-5-5-5-5-5-5--7-7-7--5-5-5-5-5-5--3-3-3---|
-5-5-5-5-5-5--8-8-8--5-5-5-5-5-5--3-3-3---|
------------------------------------------|
------------------------------------------|
------------------------------------------|

-5-5-5-5-5-5--6-6-6--5-5-5-5-5-5----------|
-5-5-5-5-5-5--7-7-7--5-5-5-5-5-5----------|
-5-5-5-5-5-5--8-8-8--5-5-5-5-5-5---8--8---|
-----------------------------------8--8---|
-----------------------------------6--6---|
------------------------------------------|


(Trumpet playing)
---------------------------|
---------------------------|
-9---12-11-10-9--7h8-7h8---|
---------------------------|
---------------------------|
---------------------------|

---------------------------|
---------------------------|
-9---12-11-10-9----9-9-----|
---------------------------|
---------------------------|
---------------------------|

Verse:

-5-5-5-5-5-5--6-6-6--5-5-5-5-5-5--3-3-3---|
-5-5-5-5-5-5--7-7-7--5-5-5-5-5-5--3-3-3---|
-5-5-5-5-5-5--8-8-8--5-5-5-5-5-5--3-3-3---|
------------------------------------------|
------------------------------------------|
------------------------------------------|
                                                    (2x)
-5-5-5-5-5-5--6-6-6------------|
-5-5-5-5-5-5--7-7-7------------|
-5-5-5-5-5-5--8-8-8-----8--8---|
------------------------8--8---|
------------------------6--6---|
-------------------------------|


Refrain (1:25):
----------------------------|
----------------------------|
----------------------------|    (2x)
--8-7-5-5----8-7-5-5-5--8---|
--6-5-3-5----6-5-3-5-5--8---|
--------7----------7-7--6---|


--------------|
--------------|
--------------|
--8-7-5-5--7--|
--6-5-3-5--7--|
--------7--5--|


Interlude:
---------------------------|
---------------------------|
--------------7------------|
--5---7---5---7------------|
--5---7---5---5------------|
--3---5---3----------------|

---------------------------------------------|
---------------------------------------------|
-----------5-5-5-5-5-----------7-7-7-7-7-----|    (4x)
--7-7-7-7--5-5-5-5-5--5-5-5-5--7-7-7-7-7-----|
--7-7-7-7--3-3-3-3-3--5-5-5-5--5-5-5-5-5-----|
--5-5-5-5-------------3-3-3-3----------------|

-------------------------------|
-------------------------------|
------------------------5------|
------------------------5--5---| (4x)
-7-7-0-7-6-6-0-6-5-5-0--3--5---|
---------------------------3---|

Bridge (2:16):

-5-5-5-5-5-5--6-6-6--5-5-5-5-5-5--3-3-3---|
-5-5-5-5-5-5--7-7-7--5-5-5-5-5-5--3-3-3---|
-5-5-5-5-5-5--8-8-8--5-5-5-5-5-5--3-3-3---|
------------------------------------------|
------------------------------------------|
------------------------------------------|

-5-5-5-5-5-5--6-6-6------------|
-5-5-5-5-5-5--7-7-7------------|
-5-5-5-5-5-5--8-8-8-----8--8---|
------------------------8--8---|
------------------------6--6---|
-------------------------------|


(Trumpet playing)
---------------------------|
---------------------------|
-9---12-11-10-9--7h8-7h8---|
---------------------------|
---------------------------|
---------------------------|

---------------------------|
---------------------------|
-9---12-11-10-9----9-9-----|
---------------------------|
---------------------------|
---------------------------|

Verse (2:27):

-5-5-5-5-5-5--6-6-6--5-5-5-5-5-5--3-3-3---|
-5-5-5-5-5-5--7-7-7--5-5-5-5-5-5--3-3-3---|
-5-5-5-5-5-5--8-8-8--5-5-5-5-5-5--3-3-3---|
------------------------------------------|
------------------------------------------|
------------------------------------------|
                                               (2x)
-5-5-5-5-5-5--6-6-6------------|
-5-5-5-5-5-5--7-7-7------------|
-5-5-5-5-5-5--8-8-8-----8--8---|
------------------------8--8---|
------------------------6--6---|
-------------------------------|


Interlude:
-5--7--5---|
-5--8--7---|
-5--9--7---| (6x)
-7--9--7---|
-7--7--5---|
-5---------|

Refrain (3:17):
----------------------------|
----------------------------|
----------------------------|    (2x)
--8-7-5-5----8-7-5-5-5--8---|
--6-5-3-5----6-5-3-5-5--8---|
--------7----------7-7--6---|


--------------|
--------------|
--------------|
--8-7-5-5--7--|
--6-5-3-5--7--|
--------7--5--|

Interlude:
---------------------------|
---------------------------|
--------------7------------|
--5---7---5---7------------|
--5---7---5---5------------|
--3---5---3----------------|

---------------------------------------------|
---------------------------------------------|
-----------5-5-5-5-5-----------7-7-7-7-7-----|    (4x)
--7-7-7-7--5-5-5-5-5--5-5-5-5--7-7-7-7-7-----|
--7-7-7-7--3-3-3-3-3--5-5-5-5--5-5-5-5-5-----|
--5-5-5-5-------------3-3-3-3----------------|


-------------------------------|
-------------------------------|
------------------------5------| (4x)
------------------------5--5---|
-7-7-0-7-6-6-0-6-5-5-0--3--5---|
---------------------------3---|


the Song ends with:
------|
------|
------|
--5---|
--5---|
--7---|
Добавлено: 30.03.2012
Другие материалы по этой песне:

Страница создана 26.02.2012
http://primanota.ru/ska-p/welcome-to-hell-chords.htm
Привет, Гость.
Предлагаем пройти революционный курс по гитаре.
Подарок от PrimaNota.Ru, забирай!