PrimaNota.ru - самый крупный в мире бесплатный архив песенных текстов, аккордов, табулатур и нот


Ska-p - Solamente Por Pensar - текст песни, бас-таба, видео

Регистрация Запомнить меня
Войти через:  Facebook Google Twitter Vk Yandex Mail.ru

Ska-p - Solamente Por Pensar - текст песни, бас-таба, видео

Печатать
Просмотров: 153
Ska-P - "Solamente por Pensar"
==============================

Off the album ¡¡Que Corra La Voz!! 

Tabbed by the Bass Playing Sheep (sheep611@gmail.com)

Quite a difficult song to tab, because of the way Julio plays the verse... 
Other parts are correct though.

Standard tuning

h or p -Hammer on/ pull off
~      -let ring
/\     -slide
*      -Staccato

 Intro:

G|----------------------------------------|
D|-4-3-2-1-------------4-3-2-1------------|
A|---------44-33-22-0----------44-33-22-0-|
E|----------------------------------------|
                    *                   *

G|--------------------------------------------/4h5h6\-|
D|-4-3-2-1--------------------------------------------|
A|---------44-33-22-2h3h4~~~-2h3h4~~~-2h3h4~~---------|
E|----------------------------------------------------|


 Pre verse:

G|-----------------------------------|
D|-4---2-4----1-2-4-----2------1-2-3-|
A|---4------2-------0-4---0--2-------|
E|-----------------------------------|

G|---------------------------------|
D|-4---2-4----1-2-4-----2----------|
A|---4------2-------0-4---54-4-444-|
E|---------------------------------|
                           * *   *

G|-----------------------------------|
D|-4---2-4----1-2-4-----2------1-2-3-|
A|---4------2-------0-4---0--2-------|
E|-----------------------------------|

G|----------------------------------------|
D|-4---2-4----1-2-4-----2-----------------|
A|---4------2-------0-4---54-4-444--4-444-|
E|----------------------------------------|
                           * *   *  *   *

 Verse:

G|----------------------------------------|
D|------------------------------------0-2-|       Very hard to hear what hes 
A|------------2-0---------2-------2-4-----|       playing and how hes playing it
E|-2p0h2--0-0-----2-0-2-2--2--0-0---------|

G|------------------------------|
D|------------------------------|
A|---2-------2-0------55-554~~~-|
E|-2--2--0-0-----2-0------------|

G|----------------------------------------|
D|------------------------------------0-2-|
A|------------2-0---------2-------2-4-----|
E|-2p0h2--0-0-----2-0-2-2--2--0-0---------|

G|--------------------------------------|
D|--------------------------------------|
A|---2-------2-0------55-554~~-55-554~~-|
E|-2--2--0-0-----2-0--------------------|


 Chorus: 
                                   x4
G|---------------------------------|----|
D|---------------------------------|----|  Follow the bass drum
A|---------4-4-444---------2-2-222-|-2\-|
E|-2-2-222---------4-4-444---------|----|

  
 Pre-verse:

G|-----------------------------------|
D|-4---2-4----1-2-4-----2------1-2-3-|
A|---4------2-------0-4---0--2-------|
E|-----------------------------------|

G|----------------------------------------|
D|-4---2-4----1-2-4-----2-----------------|
A|---4------2-------0-4---54-4-444--4-444-|
E|----------------------------------------|
                           * *   *  *   *

 Verse:

G|----------------------------------------|
D|------------------------------------0-2-|       Very hard to hear what hes 
A|------------2-0---------2-------2-4-----|       playing and how hes playing it
E|-2p0h2--0-0-----2-0-2-2--2--0-0---------|

G|------------------------------|
D|------------------------------|
A|---2-------2-0------55-554~~~-|
E|-2--2--0-0-----2-0------------|

G|----------------------------------------|
D|------------------------------------0-2-|
A|------------2-0---------2-------2-4-----|
E|-2p0h2--0-0-----2-0-2-2--2--0-0---------|

G|--------------------------------------|
D|--------------------------------------|
A|---2-------2-0------55-554~~-55-554~~-|
E|-2--2--0-0-----2-0--------------------|


 Chorus 2: 
                                  x3
G|---------------------------------|
D|---------------------------------|   Follow the bass drum
A|---------4-4-444---------2-2-222-|
E|-2-2-222---------4-4-444---------|

G|---------------------------------------------------------------|
D|---------------------------------------------------------------|
A|---------4-4-444---------2-2-222-22-2-22-2-44-4-44-4-44-4-44-4-|
E|-2-2-222---------4-4-444---------------------------------------|


 Bridge 1:
  
G|--------------------------------------|
D|-4-3-2------------4-3-2---------------|
A|---------4--3-2-0----------4-3-2h3h4~-|
E|--------------------------------------|
              
G|--------------------------------------------/4h5h6\-|
D|-4-3-2----------------------------------------------|
A|---------4--3-2--2h3h4~~~-2h3h4~~~-2h3h4~~----------|
E|----------------------------------------------------|

 Bridge 2:
                                     
G|--------------1--------2------------|
D|------------2------0-4---0--2-4-2---|
A|---0-4----4-----4-----------------0-|
E|-2-----2----------------------------|

G|--------------1--------2------------|
D|------------2------0-4---0----------|
A|---0-4----4-----4-----------5-4-2-0-|
E|-2-----2----------------------------|

G|--------------1--------2------------|
D|------------2------0-4---0--2-4-2---|
A|---0-4----4-----4-----------------0-|
E|-2-----2----------------------------|

G|--------------1--------2------------|
D|------------2------0-4---0----------|
A|---0-4----4-----4-----------5-4-2-0-|
E|-2-----2----------------------------|

G|--------/6-6-6-6-|
D|-----------------|
A|-4-4-4-4---------|
E|-----------------|


 Outro/Chorus: 
                                  x3
G|---------------------------------|
D|---------------------------------|  Follow the bass drum
A|---------4-4-444---------2-2-222-|
E|-2-2-222---------4-4-444---------|

G|---------------------------------------------------------------|
D|---------------------------------------------------------------|
A|---------4-4-444---------2-2-222-22-2-22-2-44-4-44-4-44-4-44-4-|
E|-2-2-222---------4-4-444---------------------------------------|

                                  x6
G|---------------------------------|----------|
D|---------------------------------|-4~~~~-4\-|  
A|---------4-4-444---------2-2-222-|----------|
E|-2-2-222---------4-4-444---------|----------|

Thats it, have fun!

Добавлено: 29.05.2012
Другие материалы по этой песне:

Страница создана 16.03.2012
http://primanota.ru/ska-p/solamente-por-pensar-chords.htm
Привет, Гость.
Предлагаем пройти революционный курс по гитаре.
Подарок от PrimaNota.Ru, забирай!