PrimaNota.ru - самый крупный в мире бесплатный архив песенных текстов, аккордов, табулатур и нот


Ska-p - El Nio Soldado - таба, видео

Регистрация Запомнить меня
Войти через:  Facebook Google Twitter Vk Yandex Mail.ru

Ska-p - El Nio Soldado - таба, видео

Печатать
Просмотров: 103
hola a todos este es mi primer tab aki asi q aki lo tienen estoy seguro q esta 100%
o  por lo menos un 90, lo he practicado varias veces y si sale bien.
dudas o correcciones a dennisa17@hotmail.com


bueno  los acordes que se utilizan son La(A), Re(D), Sol(G) y Si(B)
ok la intro va con distorcion y a la vez con efecto de coro.

    D  A  G
e)-------------|I
B)-------------|I
G)--7----------|I  esto va 4 veces
D)--7--7--5----|I
A)--5--7--5----|I
E)-----5--3----|I

Luego viene el verso q es con las mismos acordes pero lo tocan en corcheas

    D  A  G  G
e)----------------|I
B)----------------|I
G)--7-------------|I
D)--7--7--5--5----|I esto lo tocan 4 veces
A)--5--7--5--5----|I
E)-----5--3--3----|I

el pre-coro

    B  D  B  D  B  D  B  A
e)----------------------------|I
B)----------------------------|I
G)-----7-----7-----7----------|I
D)--9--7--9--7--9--7--9--7----|I DESPUES DE ESTO HAGAN UN PICKSLIDE Y ENTRA EL
A)--9--5--9--5--9--5--9--7----|I CORO
E)--7-----7-----7-----7--5----|I

Coro

e)-------------I-------------|I
B)-------------I-------------|I
G)--7----------I--7----------|I
D)--7--7--9--5-I--7--7--5----|I
A)--5--7--9--5-I--5--7--5----|I
E)-----5--7--3-I-----5--3----|I

en el verso en ritmo de ska token estos acordes

re(D) la(A)  sol(G)

tambien pueden usar los powerchord de la intro pero no va a sonar tan bien como los acordes

en la parte de la trompeta pueden utilizar el siguiente punteo

e-----------------------------------------------------------|
B-----------------------------------------------------------|
G----------4-----4-6-7-7-6-4-----------4-----4--------------|
D------4-7---7-7-------------7-----4-7---7-7---4-5-5-4-5-7--|
A--5-5-------------------------5-5--------------------------|
E-----------------------------------------------------------|

Este es el solo

e------------------------------------------I-----------------------|
B------------------------------------------I-----------------------|
G--19-17-16----17-16-------19-17-16----b17-I--19-17-18----17-16----|
D-----------19-------17-19----------19-----I-----------19-------19-|
A------------------------------------------I-----------------------|
E------------------------------------------I-----------------------|

e-----------I----------------------------------------------I--------|
B-----------I----------------------------------------------I--------|
G--16----17-I--------b17-----------------b19---------------I--------|
D-----17----I--17-19-----17-19-b17-17-19-----17-19-b17--19-I-17-19--|
A-----------I----------------------------------------------I--------|
E-----------I----------------------------------------------I--------|

E--------------------------------|I
B-----17-------------------------|I
G--19----19-17-17/16-17h19--19---|I
D--------------------------------|I
A--------------------------------|I
E--------------------------------|I

esa es toda la kncion espero q la disfruten

comentarios y otros a dennisa17@hotmail.com
Добавлено: 01.10.2013
Другие материалы по этой песне:
  • Аккорды и текст

Страница создана 20.08.2013
http://primanota.ru/ska-p/el-nio-soldado-chords.htm
Привет, Гость.
Предлагаем пройти революционный курс по гитаре.
Подарок от PrimaNota.Ru, забирай!