PrimaNota.ru - самый крупный в мире бесплатный архив песенных текстов, аккордов, табулатур и нот


Ska-p - El Libertador - таба, видео

Регистрация Запомнить меня
Войти через:  Facebook Google Twitter Vk Yandex Mail.ru

Ska-p - El Libertador - таба, видео

Печатать
Просмотров: 162
EL LIBERTADOR- Ska-P

Intro  *= x8    #= x4

E|--3*--3*--1*--1#--3#--|
B|--5---3---3---1---3---|
G|--5---4---2---2---4---|          x2
D|----------------------|
A|----------------------|
E|----------------------|

Verse  

E|--3*--3*--5*--1*--3*--3*--1*--1#--3#--|
B|--5---3---5---1---5---3---3---1---3---|
G|--5---4---5---2---5---4---2---2---4---|
D|--------------------------------------|
A|--------------------------------------|
E|--------------------------------------|
Then play Intro

Verse

E|--3*--3*--5*--1*--3*--3*--1*--1*--3*--|
B|--5---3---5---1---5---3---3---1---3---|
G|--5---4---5---2---5---4---2---2---4---|
D|--------------------------------------|
A|--------------------------------------|
E|--------------------------------------|

Pre-Chorus
                                  x2
E|-----------------|---------------------------------|---------------|
B|-----------------|---------------------------------|---------------|
G|-----------------|------5--------------------------|---------------|
D|--5--5-5--5--5-5-|-3----5----5----5-4-5-4--5-4-5-4-|-3----5--------|
A|--5--5-5--5--5-5-|-3----3----5----5-4-5-4--5-4-5-4-|-3----5--------|
E|--3--3-3--3--3-3-|-1---------3----3-2-3-2--3-2-3-2-|-1----3--------|

Chorus

E|----------------------------------------------------------------------------|
B|----------------------------------------------------------------------------|
G|--5------------------------5-----------5------------------------5-----------|
D|--5----5----7----2----3----5----5------5----5----7----2----3----5----3----5-|
A|--3----5----7----2----3----3----5------3----5----7----2----3----3----3----5-|
E|-------3----5----0----1---------3-----------3----5----0----1---------1----3-|
Then play Intro

Verse
 /diff. strumming\
E|--3---1---1---3-|--3*--1*--1*--3*-|
B|--5---3---1---3-|--5---3---1---3--|
G|--5---2---2---4-|--5---2---2---4--|
D|----------------|-----------------|
A|----------------|-----------------|
E|----------------|-----------------|
Then play Pre-Chorus and Chorus

Outro

E|---------|
B|---------|
G|-------5-|
D|--3----5-|
A|--3----3-|
E|--1------|
Добавлено: 20.06.2013
Другие материалы по этой песне:
  • Аккорды и текст

Страница создана 20.06.2013
http://primanota.ru/ska-p/el-libertador-chords.htm
Привет, Гость.
Предлагаем пройти революционный курс по гитаре.
Подарок от PrimaNota.Ru, забирай!