PrimaNota.ru - самый крупный в мире бесплатный архив песенных текстов, аккордов, табулатур и нот


Ska-p - canabis - бас-таба, видео

Регистрация Запомнить меня
Войти через:  Facebook Google Twitter Vk Yandex Mail.ru

Ska-p - canabis - бас-таба, видео

Печатать
Просмотров: 88
hola !!! i made this tab years ago back in bassmasta so i re-did it on this 
site so if you see it there ignore it because this one is better :D enjoy !

normal tuning
bass kicks in at 0:22

intro
|----------------------------|----------------------------|
|----------------------4-5-7-|----------------------7-6-5-|
|-3-3-3--------5-5-5-5-------|-3-3-3--------5-5-5-5-------| x2
|-------3-3-33---------------|-------3-3-33---------------|
       
verse                               x2          x2
|--------------------------------------|----------|
|--------------------------------------|----------|
|---5---5-3h5---5---5--5-3---3---3---3-|-3~----5~-|
|-3---3-------5---5--------3---3---3---|----3~----|

chorus
|-----------------------------|
|-----------2------4----------|
|----2----3---3--5---5--5-----|x4
|--3---3-------------------5--|

fill
|----------------------------|
|----------2-5----4-7-4------|
|---2-5--3------5--------5---|x2
|-3------------------------5-|

riff
|----------------------------|----------------------------|
|----------------------4-5-7-|----------------------7-6-5-|
|-3-3-3--------5-5-5-5-------|-3-3-3--------5-5-5-5-------| x2
|-------3-3-33---------------|-------3-3-33---------------|

verse 2                             x2          x2
|--------------------------------------|----------|
|--------------------------------------|----------|
|---5---5-3h5---5---5--5-3---3---3---3-|-3~----5~-|
|-3---3-------5---5--------3---3---3---|----3~----|

chorus 2
|-----------------------------|
|-----------2------4----------|
|----2----3---3--5---5--5-----|x4
|--3---3-------------------5--|

fill
|----------------------------|
|----------2-5----4-7-4------|
|---2-5--3------5--------5---|x2
|-3------------------------5-|

riff
|----------------------------|----------------------------|
|----------------------4-5-7-|----------------------7-6-5-|
|-3-3-3--------5-5-5-5-------|-3-3-3--------5-5-5-5-------| x2
|-------3-3-33---------------|-------3-3-33---------------|

interlude
|-----------------------------|
|-----------2------4----------|
|----2----3---3--5---5--5-----|x4
|--3---3-------------------5--|

|----------------------------|
|----------2-5----4-7-4------|
|---2-5--3------5--------5---|
|-3------------------------5-|

chorus
|-----------------------------|
|-----------2------4----------|
|----2----3---3--5---5--5-----|x8
|--3---3-------------------5--|

bridge
|----------------------------|-------------------------|
|----------------------4-5-7-|-------------------------|
|-------3-3-33-5-5-5-5-------|-3-3-3--------5-5-5-5-5~-|
|-3-3-3----------------------|-------3-3-33------------|

|----------------------------|----------------------------|
|----------------------4-5-7-|----------------------7-6-5-|
|-3-3-3--------5-5-5-5-------|-3-3-3--------5-5-5-5-------| x2
|-------3-3-33---------------|-------3-3-33---------------|

outro          x4
|----------------|-5-3---3----------------------------|
|----------------|-----5---5-3-5-3---3------------3-5-|
|----5~-3-3-3-33-|-----------------5---5-3--2-4-5-----|
|-3~-------------|------------------------------------|

and thats it :D awesome stuff have fun bassin it! l8er !
Добавлено: 04.01.2014
Другие материалы по этой песне:

Страница создана 19.05.2012
http://primanota.ru/ska-p/canabis-chords.htm
Привет, Гость.
Предлагаем пройти революционный курс по гитаре.
Подарок от PrimaNota.Ru, забирай!