PrimaNota.ru - самый крупный в мире бесплатный архив песенных текстов, аккордов, табулатур и нот


Sixx:A.M. - Live Forever - текст песни, таба, бас-таба, видео

Регистрация Запомнить меня
Войти через:  Facebook Google Twitter Vk Yandex Mail.ru

Sixx:A.M. - Live Forever - текст песни, таба, бас-таба, видео

Печатать
Просмотров: 116
Tuning: DADGBe

Intro x2

e|-----------------|      |-------------------------|
B|-----------------|      |-------------------------|
G|-----------------|      |-------------------------|
D|-----------------| x3   |------5------5-----------|
A|---------5---5---|      |--3-3-3-5-5--3-----------|
D|-0-3h5-0---0-----|      |--3-3---5-5--------------|
   * * *                     * *   * *
Verse

e|-----------------------------------------|                |----|
B|-----------------------------------------|                |----|
G|-----------------------------------------|                |----|
D|-0--0-0---0-0-0-8--8-8-8-5--5-5--5-0-----| x3  ends with  |-8~-|
A|-0--0-0---0-0-0-8--8-8-8-5--5-5--5-0-----|                |-8~-|
D|-0--0-0---0-0-0-8--8-8-8-5--5-5--5-0-----|                |-8~-|

Pre-chorus

1st guitar
e|-------------------------------------------------------------------|
B|-------------------------------------------------------------------|
G|-------------------------------------------------------------------|
D|-0-0-0-0-0-0-0-0-3-3-3-3-3-3-3-3-5-5-5-5-5-5-5-5-5-5-5-5-5-5-5-5---| x2
A|-0-0-0-0-0-0-0-0-3-3-3-3-3-3-3-3-3-3-3-3-3-3-3-3-2-2-2-2-2-2-2-2---|
D|-0-0-0-0-0-0-0-0-3-3-3-3-3-3-3-3-----------------------------------|
   * * * * * * * * * * * * * * * * * * * * * * * * * * * * * * * *

2nd guitar
e|---------------------------------------------|
B|-6-6-6---10-10--10--------------8-8-8--------|
G|----7-7---------------9-9--9-------7-7-------| x2
D|--------------10--10-----10-10---------------|
A|---------------------------------------------|
D|---------------------------------------------|

1st guitar
e|----------------------------------------|
B|----------------------------------------|
G|-3-3-3-3-3-3-3-3-3-3-3-3-3-3-3-3--------|
D|-3-3-3-3-3-3-3-3-3-3-3-3-3-3-3-3--------|
A|-1-1-1-1-1-1-1-1-1-1-1-1-1-1-1-1--------|
D|----------------------------------------|

2nd guitar
e|----------------------------------------|
B|----------------------------------------|
G|-3-3-3-3/5-5-5-5/7-7-7-7/9-9-9-9--------|
D|-x-x-x-x/x-x-x-x/x-x-x-x/x-x-x-x--------|
A|-1-1-1-1/3-3-3-3/5-5-5-5/7-7-7-7--------|
D|----------------------------------------|

Chorus
e|-----------------------------------------------------------------------|
B|-----------------------------------------------------------------------|
G|-----------------------------------7777777777777777--------------------|
D|-3333333333333333-7777777777777777-7777777777777777-8888888888888888---|  x2
A|-3333333333333333-7777777777777777-5555555555555555-8888888888888888---|
D|-3333333333333333-7777777777777777-0000000000000000-8888888888888888---|

Repeat intro (just one time)

e|-----------------|      |-------------------------|
B|-----------------|      |-------------------------|
G|-----------------|      |-------------------------|
D|-----------------| x3   |------5------5-----------|
A|---------5---5---|      |--3-3-3-5-5--3-----------|
D|-0-3h5-0---0-----|      |--3-3---5-5--------------|
   * * *                     * *   * *

Verse

e|-----------------------------------------|
B|-----------------------------------------|
G|-----------------------------------------|
D|-0--0-0---0-0-0-8--8-8-8-5--5-5--5-0-----| x2
A|-0--0-0---0-0-0-8--8-8-8-5--5-5--5-0-----|
D|-0--0-0---0-0-0-8--8-8-8-5--5-5--5-0-----|

Pre-chorus

1st guitar
e|-------------------------------------------------------------------|
B|-------------------------------------------------------------------|
G|-------------------------------------------------------------------|
D|-0-0-0-0-0-0-0-0-3-3-3-3-3-3-3-3-5-5-5-5-5-5-5-5-5-5-5-5-5-5-5-5---| x2
A|-0-0-0-0-0-0-0-0-3-3-3-3-3-3-3-3-3-3-3-3-3-3-3-3-2-2-2-2-2-2-2-2---|
D|-0-0-0-0-0-0-0-0-3-3-3-3-3-3-3-3-----------------------------------|
   * * * * * * * * * * * * * * * * * * * * * * * * * * * * * * * *

2nd guitar
e|---------------------------------------------|
B|-6-6-6---10-10--10--------------8-8-8--------|
G|----7-7---------------9-9--9-------7-7-------| x2
D|--------------10--10-----10-10---------------|
A|---------------------------------------------|
D|---------------------------------------------|

1st guitar
e|----------------------------------------|
B|----------------------------------------|
G|-3-3-3-3-3-3-3-3-3-3-3-3-3-3-3-3--------|
D|-3-3-3-3-3-3-3-3-3-3-3-3-3-3-3-3--------|
A|-1-1-1-1-1-1-1-1-1-1-1-1-1-1-1-1--------|
D|----------------------------------------|

2nd guitar
e|----------------------------------------|
B|----------------------------------------|
G|-3-3-3-3/5-5-5-5/7-7-7-7/9-9-9-9--------|
D|-x-x-x-x/x-x-x-x/x-x-x-x/x-x-x-x--------|
A|-1-1-1-1/3-3-3-3/5-5-5-5/7-7-7-7--------|
D|----------------------------------------|

Chorus

e|-----------------------------------------------------------------------|
B|-----------------------------------------------------------------------|
G|-----------------------------------7777777777777777--------------------|
D|-3333333333333333-7777777777777777-7777777777777777-8888888888888888---|  x2
A|-3333333333333333-7777777777777777-5555555555555555-8888888888888888---|
D|-3333333333333333-7777777777777777-0000000000000000-8888888888888888---|

After the chorus...

e|-----------------|      |------------------------|
B|-----------------|      |------------------------|
G|-----------------|      |------------------------|
D|-----------------| x3   |-----------------0~-----|
A|-------0-0-------|      |------------6-5--0~-----|
D|-0-3h5-0-0-------|      |-0-3h5--0-3h6-5--0~-----|
   * * * * *

Bridge

2nd guitar
e|---------------------------------------------    |--------|
B|-6-6-6---10-10--10--------------8-8-8--------    |-6-6-6--|
G|----7-7---------------9-9--9-------7-7------- x2 |----7-7-|
D|--------------10--10-----10-10---------------    |--------|
A|---------------------------------------------    |--------|
D|---------------------------------------------    |--------|

Rhythm guitar during the solo

e|-----------------------------------------------------------------------|
B|-----------------------------------------------------------------------|
G|-----------------------------------7777777777777777--------------------|
D|-3333333333333333-7777777777777777-7777777777777777-8888888888888888---|  x2
A|-3333333333333333-7777777777777777-5555555555555555-8888888888888888---|
D|-3333333333333333-7777777777777777-0000000000000000-8888888888888888---|

Chorus

e|-----------------------------------------------------------------------|
B|-----------------------------------------------------------------------|
G|-----------------------------------7777777777777777--------------------|
D|-3333333333333333-7777777777777777-7777777777777777-8888888888888888---|  x2
A|-3333333333333333-7777777777777777-5555555555555555-8888888888888888---|
D|-3333333333333333-7777777777777777-0000000000000000-8888888888888888---|

Intro/end x2

e|-----------------|      |-------------------------|
B|-----------------|      |-------------------------|
G|-----------------|      |-------------------------|
D|-----------------| x3   |------5------5-----------|
A|---------5---5---|      |--3-3-3-5-5--3-----------|
D|-0-3h5-0---0-----|      |--3-3---5-5--------------|
   * * *                     * *   * *

That's all!!!
(I'm so sorry for the solo... I'll tab it!)
Добавлено: 10.03.2016
Другие материалы по этой песне:
  • Аккорды и текст

Страница создана 09.08.2013
http://primanota.ru/sixxam/live-forever-chords.htm
Привет, Гость.
Предлагаем пройти революционный курс по гитаре.
Подарок от PrimaNota.Ru, забирай!