PrimaNota.ru - самый крупный в мире бесплатный архив песенных текстов, аккордов, табулатур и нот


Sixx:A.M. - Goodbye My Friends - текст песни, таба, видео

Регистрация Запомнить меня
Войти через:  Facebook Google Twitter Vk Yandex Mail.ru

Sixx:A.M. - Goodbye My Friends - текст песни, таба, видео

Печатать
Просмотров: 92
-------------------------------------------------------------------------------
                             Goodbye My Friends - Sixx:A.M.
-------------------------------------------------------------------------------
Tabbed by: TonyC
E-mail: tonycamposmusic@gmail.com

WHAT'S UP! TonyC HERE! IF YOU NEED ANY VISUAL HELP
ON THE TABS HERE'S A LINK TO A COVER WE DID!

https://www.youtube.com/watch?v=6LZ0TUof6vY

NOTE, WE ARE NOT PERFECT GUITAR PLAYERS, SO THERE ARE MISTAKES, BUT IT SHOULD HELP A LITTLE!
HOPEFULLY IT HELPS IF THERE'S ANY CONFUSION!
THANKS!

ALSO HERE IS A LESSON ON THE GUITAR SOLO! CHECK IT OUT!

https://www.youtube.com/watch?v=6gS5y1YJhGU

Tuning:DADGBE

Guitar 1
e|---------------------------------------------------------------------------|
B|---------------------------------------------------------------------------|
G|---------------------------------------------------------------------------|
D|---------------------------------------------------------------------------|
A|---------------------------------------------------------------------------|
D|---------------------------------------------------------------------------|

e|---------------------------------------------------------------------------|
B|---------------------------------------------------------------------------|
G|---------------------------------------------------------------------------|
D|---------------------------------------------------------------------------|
A|---------------------------------------------------------------------------|
D|---------------------------------------------------------------------------|

e|---------------------------------------------------------------------------|
B|---------------------------------------------------------------------------|
G|7-7-7-7-----------------------------7-7-7-7--------------------6-6-6-6-----|
D|7-7-7-7--7-7-7-7--8-8-8-8--3-3-3-3--7-7-7-7--7-7-7-7--3-3-3-3--6-6-6-6-----|
A|5-5-5-5--7-7-7-7--8-8-8-8--3-3-3-3--5-5-5-5--7-7-7-7--3-3-3-3--4-4-4-4-----|
D|---------7-7-7-7--8-8-8-8--3-3-3-3-----------7-7-7-7--3-3-3-3--------------|

e|---------------------------------------------------------------------------|
B|---------------------------------------------------------------------------|
G|7-7-7-7-----------------------------7-7-7-7--------------------6-6-6-6-----|
D|7-7-7-7--7-7-7-7--8-8-8-8--3-3-3-3--7-7-7-7--7-7-7-7--3-3-3-3--6-6-6-6-----|
A|5-5-5-5--7-7-7-7--8-8-8-8--3-3-3-3--5-5-5-5--7-7-7-7--3-3-3-3--4-4-4-4-----|
D|---------7-7-7-7--8-8-8-8--3-3-3-3-----------7-7-7-7--3-3-3-3--------------|

e|---------------------------------------------------------------------------|
B|---------------------------------------------------------------------------|
G|---------------------------------------------------------------------------|
D|---------------------------------------------------------------------------|
A|---------------------------------------------------------------------------|
D|---------------------------------------------------------------------------|

e|---------------------------------------------------------------------------|
B|---------------------------------------------------------------------------|
G|---------------------------------------------------------------------------|
D|---------------------------------------------------------------------------|
A|---------------------------------------------------------------------------|
D|---------------------------------------------------------------------------|

e|---------------------------------------------------------------------------|
B|---------------------------------------------------------------------------|
G|7-7-7-7-7-7-7-7-7-7-7-7-7-7-7-7--------------------------------------------|
D|7-7-7-7-7-7-7-7-7-7-7-7-7-7-7-7--7-7-7-7-7-7-7-7-7-7-7-7-7-7-7-7-----------|
A|5-5-5-5-5-5-5-5-5-5-5-5-5-5-5-5--7-7-7-7-7-7-7-7-7-7-7-7-7-7-7-7-----------|
D|---------------------------------7-7-7-7-7-7-7-7-7-7-7-7-7-7-7-7-----------|
  *-*-*-*-*-*-*-*-*-*-*-*-*-*-*-*--*-*-*-*-*-*-*-*-*-*-*-*-*-*-*-*

e|--------------------------------------------------------------------------------|
B|--------------------------------------------------------------------------------|
G|--------------------------------------------------------------------------------|
D|10-10-10-10-10-10-10-10-10-10-10-10-10-10-10-10--5-5-5-5-5-5-5-5-5-5-5-5-5-5-5-5|
A|10-10-10-10-10-10-10-10-10-10-10-10-10-10-10-10--5-5-5-5-5-5-5-5-5-5-5-5-5-5-5-5|
D|10-10-10-10-10-10-10-10-10-10-10-10-10-10-10-10--5-5-5-5-5-5-5-5-5-5-5-5-5-5-5-5|
  **-**-**-**-**-**-**-**-**-**-**-**-**-**-**-**--*-*-*-*-*-*-*-*-*-*-*-*-*-*-*-*

e|--------------------------------|
B|--------------------------------|
G|--------------------------------|
D|8-------------------------------|
A|8-------------------------------|
D|8-------------------------------|

e|----------------------------------------------------------------------------------|
B|10-10-10-10--8-8-8-8--11-11-11-11--6-6-6-6--10-10-10-10--8-8-8-8--6-6-6-6--8-8-8-8|
G|----------------------------------------------------------------------------------|
D|7--7--7--7---5-5-5-5--8--8--8--8---3-3-3-3--7--7--7--7---5-5-5-5--3-3-3-3--5-5-5-5|
A|----------------------------------------------------------------------------------|
D|----------------------------------------------------------------------------------|

e|----------------------------------------------------------------------------------|
B|10-10-10-10--8-8-8-8--11-11-11-11--6-6-6-6--10-10-10-10--8-8-8-8--6-6-6-6--8-8-8-8|
G|----------------------------------------------------------------------------------|
D|7--7--7--7---5-5-5-5--8--8--8--8---3-3-3-3--7--7--7--7---5-5-5-5--3-3-3-3--5-5-5-5|
A|----------------------------------------------------------------------------------|
D|----------------------------------------------------------------------------------|

e|--------------------------------------------------------------------------------|
B|--------------------------------------------------------------------------------|
G|--------------------------------------------------------------------------------|
D|/12--11--/12-11-9-7--\6-9-6-7--6-9-6-7--9-11-12--11--12-11-9-7--6-9-6-7--6-9-6-7|
A|--------------------------------------------------------------------------------|
D|--------------------------------------------------------------------------------|

e|---------------------------------------------------------------------------|
B|---------------------------------------------------------------------------|
G|----9-10--10-10/12-10-9--10-9-9b(10)-7--9b(10)-6---------------------------|
D|12-------------------------------------------------------------------------|
A|---------------------------------------------------------------------------|
D|---------------------------------------------------------------------------|

e|---------------------------------------------------------------------------|
B|--------------------------------------------/10~~~~~-----------------------|
G|10--10-10/12-10-9--10-9-9b(10)-7--9b(10)-6---------------------------------|
D|---------------------------------------------------------------------------|
A|---------------------------------------------------------------------------|
D|---------------------------------------------------------------------------|

e|-------------------------------------------------------------------------------------------|
B|-------------------------------------------------------------------------------------------|
G|-------10---------10-9-7---------9---------9-7-6---------9---------9-7-5----------7-------7|
D|7-8-7-8---7-8-7-8---------7-8-7-8--7-8-7-8--------7-8-7-8--7-8-7-8--------7-8-7-8--7-8-7-8-|
A|-------------------------------------------------------------------------------------------|
D|-------------------------------------------------------------------------------------------|
  *-*-*-*---*-*-*-*---------*-*-*-*--*-*-*-*--------*-*-*-*--*-*-*-*--------*-*-*-*--*-*-*-*

e|----|
B|----|
G|----|
D|----|
A|----|
D|/15\|

e|-------------------------------------------------------------------------------------------|
B|-------------------------------------------------------------------------------------------|
G|-------10---------10-9-7---------9---------9-7-6---------9---------9-7-5----------7-------7|
D|7-8-7-8---7-8-7-8---------7-8-7-8--7-8-7-8--------7-8-7-8--7-8-7-8--------7-8-7-8--7-8-7-8-|
A|-------------------------------------------------------------------------------------------|
D|-------------------------------------------------------------------------------------------|
  *-*-*-*---*-*-*-*---------*-*-*-*--*-*-*-*--------*-*-*-*--*-*-*-*--------*-*-*-*--*-*-*-*

e|--------------------------------|
B|--------------------------------|
G|--------------------------------|
D|8-------------------------------|
A|8-------------------------------|
D|8-------------------------------|

e|----------------------------------------------------------------------------------|
B|10-10-10-10--8-8-8-8--11-11-11-11--6-6-6-6--10-10-10-10--8-8-8-8--6-6-6-6--8-8-8-8|
G|----------------------------------------------------------------------------------|
D|7--7--7--7---5-5-5-5--8--8--8--8---3-3-3-3--7--7--7--7---5-5-5-5--3-3-3-3--5-5-5-5|
A|----------------------------------------------------------------------------------|
D|----------------------------------------------------------------------------------|

e|----------------------------------------------------------------------------------|
B|10-10-10-10--8-8-8-8--11-11-11-11--6-6-6-6--10-10-10-10--8-8-8-8--6-6-6-6--8-8-8-8|
G|----------------------------------------------------------------------------------|
D|7--7--7--7---5-5-5-5--8--8--8--8---3-3-3-3--7--7--7--7---5-5-5-5--3-3-3-3--5-5-5-5|
A|----------------------------------------------------------------------------------|
D|----------------------------------------------------------------------------------|

e|---------------------------------------------------------------------------------|
B|---------------------------------------------------------------------------------|
G|---------------------------------------------------------------------------------|
D|/12--11--/12-11-9-7--\6-9-6-7--6-9-6-7--9-11-12--11--12-11-9-7--6-9-6-7--6-6-7-7-|
A|---------------------------------------------------------------------------------|
D|---------------------------------------------------------------------------------|

e|---------------------------------------------------------------------------|
B|---------------------------------------------------------------------------|
G|-----9-10--10-10/12-10-9--10-9-9b(10)-7--9b(10)-6--------------------------|
D|12-------------------------------------------------------------------------|
A|---------------------------------------------------------------------------|
D|---------------------------------------------------------------------------|

e|---------------------------------------------------------------------------|
B|--------------------------------------------/10~~~~~-----------------------|
G|10--10-10/12-10-9--10-9-9b(10)-7--9b(10)-6---------------------------------|
D|---------------------------------------------------------------------------|
A|---------------------------------------------------------------------------|
D|---------------------------------------------------------------------------|

e|-------|
B|-------|
G|-------|
D|X\-----|
A|X\-----|
D|X\-----|
*PICK SCRAPE DOWN THE NOTES

e|---13~----------12b(13r)(12)--12~----------------------|
B|/10---10b(11)-8-------------/8---8b(10r)(8)-6-\5-------|
G|-------------------------------------------------7-----|
D|-------------------------------------------------------|
A|-------------------------------------------------------|
D|-------------------------------------------------------|

e|----------------------------------------15b(17r))(15)-13-12-12b(13r)(12)-10|
B|13b(15)-13-10-13(14~)--15b(17r)(15)-14-------------------------------------|
G|---------------------------------------------------------------------------|
D|---------------------------------------------------------------------------|
A|---------------------------------------------------------------------------|
D|---------------------------------------------------------------------------|

e|17p10tr13-17p10tr13-17p10tr13-17p10tr13-17p10tr13-17p10tr13----------------|
B|---------------------------------------------------------------------------|
G|---------------------------------------------------------------------------|
D|---------------------------------------------------------------------------|
A|---------------------------------------------------------------------------|
D|---------------------------------------------------------------------------|

e|15p9tr12-15p9tr12-15p9tr12-15p9tr12-15p9tr12-15p9tr12----------------------|
B|---------------------------------------------------------------------------|
G|---------------------------------------------------------------------------|
D|---------------------------------------------------------------------------|
A|---------------------------------------------------------------------------|
D|---------------------------------------------------------------------------|

e|15p8tr12-15p8tr12-15p8tr12-15p8tr12-15p8tr12-15p8tr12----------------------|
B|---------------------------------------------------------------------------|
G|---------------------------------------------------------------------------|
D|---------------------------------------------------------------------------|
A|---------------------------------------------------------------------------|
D|---------------------------------------------------------------------------|

e|12b(13r)(12)-10-----------15b(17r)(15)-13~/18-17-13------------------------|
B|---------------13-13b(15)--------------------------------------------------|
G|---------------------------------------------------------------------------|
D|---------------------------------------------------------------------------|
A|---------------------------------------------------------------------------|
D|---------------------------------------------------------------------------|

e|------------------------12----------12-------------------------------------|
B|/18-/17-/18-17\15-13-/12--12-/13-/12--12/14--------------------------------|
G|---------------------------------------------------------------------------|
D|---------------------------------------------------------------------------|
A|---------------------------------------------------------------------------|
D|---------------------------------------------------------------------------|

e|---------------------------------12----------12----------------------------|
B|/14-17-18-17tr18-/18-17\15-13-/12--12-/13-/12--12/14-----------------------|
G|---------------------------------------------------------------------------|
D|---------------------------------------------------------------------------|
A|---------------------------------------------------------------------------|
D|---------------------------------------------------------------------------|

e|---12-13~-13-13/15-13-12--12-13-12--12b(13r)(12)-10--12b(13r)(12)-9--------|
B|/15------------------------------------------------------------------------|
G|---------------------------------------------------------------------------|
D|---------------------------------------------------------------------------|
A|---------------------------------------------------------------------------|
D|---------------------------------------------------------------------------|

e|---12-13--13-13/15-13-12--12-13-12--12b(13r)(12)-10--12b(13r)(12)-9/10~----|
B|/12------------------------------------------------------------------------|
G|---------------------------------------------------------------------------|
D|---------------------------------------------------------------------------|
A|---------------------------------------------------------------------------|
D|---------------------------------------------------------------------------|

e|---------------------------|
B|---------------------------|
G|---------------------------|
D|/12-10-9-10--9-7-9--7-6-7--|
A|---------------------------|
D|---------------------------|

************************************

| /   slide up
| \   slide down
| h   hammer-on
| p   pull-off
| ~   vibrato
| +   harmonic
| x   Mute note
| b   Bend
| pb  Pre-bend
| br  Bend release
| pbr Pre-bend release
| brb Bend release bend

************************************

Guitar 2
e|---------------------------------------------------------------------------|
B|---------------------------------------------------------------------------|
G|---------------------------------------------------------------------------|
D|0-0-0-0-0-0-0-0--7-7-7-7-7-7-7-7--8-8-8-8-8-8-8-8--3-3-3-3-3-3-3-3---------|
A|0-0-0-0-0-0-0-0--7-7-7-7-7-7-7-7--8-8-8-8-8-8-8-8--3-3-3-3-3-3-3-3---------|
D|0-0-0-0-0-0-0-0--7-7-7-7-7-7-7-7--8-8-8-8-8-8-8-8--3-3-3-3-3-3-3-3---------|
  *-*-*-*-*-*-*-*--*-*-*-*-*-*-*-*--*-*-*-*-*-*-*-*--*-*-*-*-*-*-*-*

e|---------------------------------------------------------------------------|
B|---------------------------------------------------------------------------|
G|---------------------------------------------------------------------------|
D|2-2-2-2-2-2-2-2/7-7-7-7-7-7-7-7--2-2-2-2-2-2-2-2/7-7-7-7-7-7-7-7-----------|
A|2-2-2-2-2-2-2-2/7-7-7-7-7-7-7-7--2-2-2-2-2-2-2-2/7-7-7-7-7-7-7-7-----------|
D|2-2-2-2-2-2-2-2/7-7-7-7-7-7-7-7--2-2-2-2-2-2-2-2/7-7-7-7-7-7-7-7-----------|
  *-*-*-*-*-*-*-*-*-*-*-*-*-*-*-*--*-*-*-*-*-*-*-*-*-*-*-*-*-*-*-*

e|---------------------------------------------------------------------------|
B|---------------------------------------------------------------------------|
G|7-7-7-7-----------------------------7-7-7-7--------------------6-6-6-6-----|
D|7-7-7-7--7-7-7-7--8-8-8-8--3-3-3-3--7-7-7-7--7-7-7-7--3-3-3-3--6-6-6-6-----|
A|5-5-5-5--7-7-7-7--8-8-8-8--3-3-3-3--5-5-5-5--7-7-7-7--3-3-3-3--4-4-4-4-----|
D|---------7-7-7-7--8-8-8-8--3-3-3-3-----------7-7-7-7--3-3-3-3--------------|

e|---------------------------------------------------------------------------|
B|---------------------------------------------------------------------------|
G|7-7-7-7-----------------------------7-7-7-7--------------------6-6-6-6-----|
D|7-7-7-7--7-7-7-7--8-8-8-8--3-3-3-3--7-7-7-7--7-7-7-7--3-3-3-3--6-6-6-6-----|
A|5-5-5-5--7-7-7-7--8-8-8-8--3-3-3-3--5-5-5-5--7-7-7-7--3-3-3-3--4-4-4-4-----|
D|---------7-7-7-7--8-8-8-8--3-3-3-3-----------7-7-7-7--3-3-3-3--------------|

e|---------------------------------------------------------------------------|
B|---------------------------------------------------------------------------|
G|---------------------------------------------------------------------------|
D|0-0-0-0-0-0-0-0-0-0-0-0-0-0-0-0--7-7-7-7-7-7-7-7-7-7-7-7-7-7-7-7-----------|
A|0-0-0-0-0-0-0-0-0-0-0-0-0-0-0-0--7-7-7-7-7-7-7-7-7-7-7-7-7-7-7-7-----------|
D|0-0-0-0-0-0-0-0-0-0-0-0-0-0-0-0--7-7-7-7-7-7-7-7-7-7-7-7-7-7-7-7-----------|
  *-*-*-*-*-*-*-*-*-*-*-*-*-*-*-*--*-*-*-*-*-*-*-*-*-*-*-*-*-*-*-*

e|--------------------------------------------------------------------------------|
B|--------------------------------------------------------------------------------|
G|--------------------------------------------------------------------------------|
D|10-10-10-10-10-10-10-10-10-10-10-10-10-10-10-10--5-5-5-5-5-5-5-5-5-5-5-5-5-5-5-5|
A|10-10-10-10-10-10-10-10-10-10-10-10-10-10-10-10--5-5-5-5-5-5-5-5-5-5-5-5-5-5-5-5|
D|10-10-10-10-10-10-10-10-10-10-10-10-10-10-10-10--5-5-5-5-5-5-5-5-5-5-5-5-5-5-5-5|
  **-**-**-**-**-**-**-**-**-**-**-**-**-**-**-**--*-*-*-*-*-*-*-*-*-*-*-*-*-*-*-*

e|---------------------------------------------------------------------------|
B|---------------------------------------------------------------------------|
G|7-7-7-7-7-7-7-7-7-7-7-7-7-7-7-7--------------------------------------------|
D|7-7-7-7-7-7-7-7-7-7-7-7-7-7-7-7--7-7-7-7-7-7-7-7-7-7-7-7-7-7-7-7-----------|
A|5-5-5-5-5-5-5-5-5-5-5-5-5-5-5-5--7-7-7-7-7-7-7-7-7-7-7-7-7-7-7-7-----------|
D|---------------------------------7-7-7-7-7-7-7-7-7-7-7-7-7-7-7-7-----------|
  *-*-*-*-*-*-*-*-*-*-*-*-*-*-*-*--*-*-*-*-*-*-*-*-*-*-*-*-*-*-*-*

e|--------------------------------------------------------------------------------|
B|--------------------------------------------------------------------------------|
G|--------------------------------------------------------------------------------|
D|10-10-10-10-10-10-10-10-10-10-10-10-10-10-10-10--5-5-5-5-5-5-5-5-5-5-5-5-5-5-5-5|
A|10-10-10-10-10-10-10-10-10-10-10-10-10-10-10-10--5-5-5-5-5-5-5-5-5-5-5-5-5-5-5-5|
D|10-10-10-10-10-10-10-10-10-10-10-10-10-10-10-10--5-5-5-5-5-5-5-5-5-5-5-5-5-5-5-5|
  **-**-**-**-**-**-**-**-**-**-**-**-**-**-**-**--*-*-*-*-*-*-*-*-*-*-*-*-*-*-*-*

e|--------------------------------|
B|--------------------------------|
G|--------------------------------|
D|8-------------------------------|
A|8-------------------------------|
D|8-------------------------------|

e|---------------------------------------------------------------------------|
B|---------------------------------------------------------------------------|
G|7-7-7-7-----------------------------7-7-7-7--------------------6-6-6-6-----|
D|7-7-7-7--7-7-7-7--8-8-8-8--3-3-3-3--7-7-7-7--7-7-7-7--3-3-3-3--6-6-6-6-----|
A|5-5-5-5--7-7-7-7--8-8-8-8--3-3-3-3--5-5-5-5--7-7-7-7--3-3-3-3--4-4-4-4-----|
D|---------7-7-7-7--8-8-8-8--3-3-3-3-----------7-7-7-7--3-3-3-3--------------|

e|---------------------------------------------------------------------------|
B|---------------------------------------------------------------------------|
G|7-7-7-7-----------------------------7-7-7-7--------------------6-6-6-6-----|
D|7-7-7-7--7-7-7-7--8-8-8-8--3-3-3-3--7-7-7-7--7-7-7-7--3-3-3-3--6-6-6-6-----|
A|5-5-5-5--7-7-7-7--8-8-8-8--3-3-3-3--5-5-5-5--7-7-7-7--3-3-3-3--4-4-4-4-----|
D|---------7-7-7-7--8-8-8-8--3-3-3-3-----------7-7-7-7--3-3-3-3--------------|

e|---------------------------------------------------------------------------|
B|---------------------------------------------------------------------------|
G|7-7-7-7-7-7-7-7------------------------------------------------------------|
D|7-7-7-7-7-7-7-7--7-7-7-7-7-7-7-7--8-8-8-8-8-8-8-8--3-3-3-3-3-3-3-3---------|
A|5-5-5-5-5-5-5-5--7-7-7-7-7-7-7-7--8-8-8-8-8-8-8-8--3-3-3-3-3-3-3-3---------|
D|-----------------7-7-7-7-7-7-7-7--8-8-8-8-8-8-8-8--3-3-3-3-3-3-3-3---------|

e|---------------------------------------------------------------------------|
B|---------------------------------------------------------------------------|
G|---------------------------------------------------------------------------|
D|2-2-2-2-2-2-2-2/7-7-7-7-7-7-7-7--2-2-2-2-2-2-2-2/7-7-7-7-7-7-7-7-----------|
A|2-2-2-2-2-2-2-2/7-7-7-7-7-7-7-7--2-2-2-2-2-2-2-2/7-7-7-7-7-7-7-7-----------|
D|2-2-2-2-2-2-2-2/7-7-7-7-7-7-7-7--2-2-2-2-2-2-2-2/7-7-7-7-7-7-7-7-----------|

e|---------------------------------------------------------------------------|
B|---------------------------------------------------------------------------|
G|7-7-7-7-7-7-7-7------------------------------------------------------------|
D|7-7-7-7-7-7-7-7--7-7-7-7-7-7-7-7--8-8-8-8-8-8-8-8--3-3-3-3-3-3-3-3---------|
A|5-5-5-5-5-5-5-5--7-7-7-7-7-7-7-7--8-8-8-8-8-8-8-8--3-3-3-3-3-3-3-3---------|
D|-----------------7-7-7-7-7-7-7-7--8-8-8-8-8-8-8-8--3-3-3-3-3-3-3-3---------|

e|---------------------------------------------------------------------------|
B|---------------------------------------------------------------------------|
G|---------------------------------------------------------------------------|
D|2-2-2-2-2-2-2-2/7-7-7-7-7-7-7-7--2-2-2-2-2-2-2-2/7-7-7-7-7-7-7-7-----------|
A|2-2-2-2-2-2-2-2/7-7-7-7-7-7-7-7--2-2-2-2-2-2-2-2/7-7-7-7-7-7-7-7-----------|
D|2-2-2-2-2-2-2-2/7-7-7-7-7-7-7-7--2-2-2-2-2-2-2-2/7-7-7-7-7-7-7-7-----------|

e|---------------------------------------------------------------------------|
B|---------------------------------------------------------------------------|
G|7-7-7-7-7-7-7-7------------------------------------------------------------|
D|7-7-7-7-7-7-7-7--7-7-7-7-7-7-7-7--8-8-8-8-8-8-8-8--11-11-11-11-11-11-11-11-|
A|5-5-5-5-5-5-5-5--7-7-7-7-7-7-7-7--8-8-8-8-8-8-8-8--11-11-11-11-11-11-11-11-|
D|-----------------7-7-7-7-7-7-7-7--8-8-8-8-8-8-8-8--11-11-11-11-11-11-11-11-|

e|---------------------------------------------------------------------------|
B|---------------------------------------------------------------------------|
G|7-7-7-7-7-7-7-7------------------------------------------------------------|
D|7-7-7-7-7-7-7-7--7-7-7-7-7-7-7-7--8-8-8-8-8-8-8-8--11-11-11-11-11-11-11-11-|
A|5-5-5-5-5-5-5-5--7-7-7-7-7-7-7-7--8-8-8-8-8-8-8-8--11-11-11-11-11-11-11-11-|
D|-----------------7-7-7-7-7-7-7-7--8-8-8-8-8-8-8-8--11-11-11-11-11-11-11-11-|

e|---------------------------------------------------------------------------|
B|---------------------------------------------------------------------------|
G|7-7-7-7-----------------------------7-7-7-7--------------------6-6-6-6-----|
D|7-7-7-7--7-7-7-7--8-8-8-8--3-3-3-3--7-7-7-7--7-7-7-7--3-3-3-3--6-6-6-6-----|
A|5-5-5-5--7-7-7-7--8-8-8-8--3-3-3-3--5-5-5-5--7-7-7-7--3-3-3-3--4-4-4-4-----|
D|---------7-7-7-7--8-8-8-8--3-3-3-3-----------7-7-7-7--3-3-3-3--------------|

e|---------------------------------------------------------------------------|
B|---------------------------------------------------------------------------|
G|7-7-7-7-----------------------------7-7-7-7--------------------6-6-6-6-----|
D|7-7-7-7--7-7-7-7--8-8-8-8--3-3-3-3--7-7-7-7--7-7-7-7--3-3-3-3--6-6-6-6-----|
A|5-5-5-5--7-7-7-7--8-8-8-8--3-3-3-3--5-5-5-5--7-7-7-7--3-3-3-3--4-4-4-4-----|
D|---------7-7-7-7--8-8-8-8--3-3-3-3-----------7-7-7-7--3-3-3-3--------------|

e|---------------------------------------------------------------------------|
B|---------------------------------------------------------------------------|
G|---------------------------------------------------------------------------|
D|---------------------------------------------------------------------------|
A|---------------------------------------------------------------------------|
D|---------------------------------------------------------------------------|

e|---------------------------------------------------------------------------|
B|---------------------------------------------------------------------------|
G|7-7-7-7-7-7-7-7-7-7-7-7-7-7-7-7--------------------------------------------|
D|7-7-7-7-7-7-7-7-7-7-7-7-7-7-7-7--7-7-7-7-7-7-7-7-7-7-7-7-7-7-7-7-----------|
A|5-5-5-5-5-5-5-5-5-5-5-5-5-5-5-5--7-7-7-7-7-7-7-7-7-7-7-7-7-7-7-7-----------|
D|---------------------------------7-7-7-7-7-7-7-7-7-7-7-7-7-7-7-7-----------|
  *-*-*-*-*-*-*-*-*-*-*-*-*-*-*-*--*-*-*-*-*-*-*-*-*-*-*-*-*-*-*-*

e|--------------------------------------------------------------------------------|
B|--------------------------------------------------------------------------------|
G|--------------------------------------------------------------------------------|
D|10-10-10-10-10-10-10-10-10-10-10-10-10-10-10-10--5-5-5-5-5-5-5-5-5-5-5-5-5-5-5-5|
A|10-10-10-10-10-10-10-10-10-10-10-10-10-10-10-10--5-5-5-5-5-5-5-5-5-5-5-5-5-5-5-5|
D|10-10-10-10-10-10-10-10-10-10-10-10-10-10-10-10--5-5-5-5-5-5-5-5-5-5-5-5-5-5-5-5|
  **-**-**-**-**-**-**-**-**-**-**-**-**-**-**-**--*-*-*-*-*-*-*-*-*-*-*-*-*-*-*-*

e|--------------------------------|
B|--------------------------------|
G|--------------------------------|
D|8-------------------------------|
A|8-------------------------------|
D|8-------------------------------|

e|---------------------------------------------------------------------------|
B|---------------------------------------------------------------------------|
G|7-7-7-7-----------------------------7-7-7-7--------------------6-6-6-6-----|
D|7-7-7-7--7-7-7-7--8-8-8-8--3-3-3-3--7-7-7-7--7-7-7-7--3-3-3-3--6-6-6-6-----|
A|5-5-5-5--7-7-7-7--8-8-8-8--3-3-3-3--5-5-5-5--7-7-7-7--3-3-3-3--4-4-4-4-----|
D|---------7-7-7-7--8-8-8-8--3-3-3-3-----------7-7-7-7--3-3-3-3--------------|

e|---------------------------------------------------------------------------|
B|---------------------------------------------------------------------------|
G|7-7-7-7-----------------------------7-7-7-7--------------------6-6-6-6-----|
D|7-7-7-7--7-7-7-7--8-8-8-8--3-3-3-3--7-7-7-7--7-7-7-7--3-3-3-3--6-6-6-6-----|
A|5-5-5-5--7-7-7-7--8-8-8-8--3-3-3-3--5-5-5-5--7-7-7-7--3-3-3-3--4-4-4-4-----|
D|---------7-7-7-7--8-8-8-8--3-3-3-3-----------7-7-7-7--3-3-3-3--------------|

e|---------------------------------------------------------------------------|
B|---------------------------------------------------------------------------|
G|7-7-7-7-7-7-7-7------------------------------------------------------------|
D|7-7-7-7-7-7-7-7--7-7-7-7-7-7-7-7--8-8-8-8-8-8-8-8--3-3-3-3-3-3-3-3---------|
A|5-5-5-5-5-5-5-5--7-7-7-7-7-7-7-7--8-8-8-8-8-8-8-8--3-3-3-3-3-3-3-3---------|
D|-----------------7-7-7-7-7-7-7-7--8-8-8-8-8-8-8-8--3-3-3-3-3-3-3-3---------|

e|---------------------------------------------------------------------------|
B|---------------------------------------------------------------------------|
G|---------------------------------------------------------------------------|
D|2-2-2-2-2-2-2-2/7-7-7-7-7-7-7-7--2-2-2-2-2-2-2-2/7-7-7-7-7-7-7-7-----------|
A|2-2-2-2-2-2-2-2/7-7-7-7-7-7-7-7--2-2-2-2-2-2-2-2/7-7-7-7-7-7-7-7-----------|
D|2-2-2-2-2-2-2-2/7-7-7-7-7-7-7-7--2-2-2-2-2-2-2-2/7-7-7-7-7-7-7-7-----------|

e|---------------------------------------------------------------------------|
B|---------------------------------------------------------------------------|
G|7-7-7-7-7-7-7-7------------------------------------------------------------|
D|7-7-7-7-7-7-7-7--7-7-7-7-7-7-7-7--8-8-8-8-8-8-8-8--3-3-3-3-3-3-3-3---------|
A|5-5-5-5-5-5-5-5--7-7-7-7-7-7-7-7--8-8-8-8-8-8-8-8--3-3-3-3-3-3-3-3---------|
D|-----------------7-7-7-7-7-7-7-7--8-8-8-8-8-8-8-8--3-3-3-3-3-3-3-3---------|

e|---------------------------------------------------------------------------|
B|---------------------------------------------------------------------------|
G|---------------------------------------------------------------------------|
D|2-2-2-2-2-2-2-2/7-7-7-7-7-7-7-7--2-2-2-2-2-2-2-2/7-7-7-7-7-7-7-7-----------|
A|2-2-2-2-2-2-2-2/7-7-7-7-7-7-7-7--2-2-2-2-2-2-2-2/7-7-7-7-7-7-7-7-----------|
D|2-2-2-2-2-2-2-2/7-7-7-7-7-7-7-7--2-2-2-2-2-2-2-2/7-7-7-7-7-7-7-7-----------|

e|---------------------------------------------------------------------------|
B|---------------------------------------------------------------------------|
G|7-7-7-7-7-7-7-7------------------------------------------------------------|
D|7-7-7-7-7-7-7-7--7-7-7-7-7-7-7-7--8-8-8-8-8-8-8-8--11-11-11-11-11-11-11-11-|
A|5-5-5-5-5-5-5-5--7-7-7-7-7-7-7-7--8-8-8-8-8-8-8-8--11-11-11-11-11-11-11-11-|
D|-----------------7-7-7-7-7-7-7-7--8-8-8-8-8-8-8-8--11-11-11-11-11-11-11-11-|

e|---------------------------------------------------------------------------|
B|---------------------------------------------------------------------------|
G|7-7-7-7-7-7-7-7------------------------------------------------------------|
D|7-7-7-7-7-7-7-7--7-7-7-7-7-7-7-7--8-8-8-8-8-8-8-8--11-11-11-11-11-11-11-11-|
A|5-5-5-5-5-5-5-5--7-7-7-7-7-7-7-7--8-8-8-8-8-8-8-8--11-11-11-11-11-11-11-11-|
D|-----------------7-7-7-7-7-7-7-7--8-8-8-8-8-8-8-8--11-11-11-11-11-11-11-11-|

e|---------------|
B|---------------|
G|7-7-7-7-7-7-7-7|
D|7-7-7-7-7-7-7-7|   8 BARS OF THESE NOTES! 64 STRUMS OVERALL!
A|5-5-5-5-5-5-5-5|
D|---------------|
  *-*-*-*-*-*-*-*

e|---------------------------------------------------------------------------|
B|---------------------------------------------------------------------------|
G|7-7-7-7-7-7-7-7-7-7-7-7-7-7-7-7--------------------------------------------|
D|7-7-7-7-7-7-7-7-7-7-7-7-7-7-7-7--7-7-7-7-7-7-7-7-7-7-7-7-7-7-7-7-----------|
A|5-5-5-5-5-5-5-5-5-5-5-5-5-5-5-5--7-7-7-7-7-7-7-7-7-7-7-7-7-7-7-7-----------|
D|---------------------------------7-7-7-7-7-7-7-7-7-7-7-7-7-7-7-7-----------|
  *-*-*-*-*-*-*-*-*-*-*-*-*-*-*-*--*-*-*-*-*-*-*-*-*-*-*-*-*-*-*-*

e|--------------------------------------------------------------------------------|
B|--------------------------------------------------------------------------------|
G|--------------------------------------------------------------------------------|
D|10-10-10-10-10-10-10-10-10-10-10-10-10-10-10-10--5-5-5-5-5-5-5-5-5-5-5-5-5-5-5-5|
A|10-10-10-10-10-10-10-10-10-10-10-10-10-10-10-10--5-5-5-5-5-5-5-5-5-5-5-5-5-5-5-5|
D|10-10-10-10-10-10-10-10-10-10-10-10-10-10-10-10--5-5-5-5-5-5-5-5-5-5-5-5-5-5-5-5|
  **-**-**-**-**-**-**-**-**-**-**-**-**-**-**-**--*-*-*-*-*-*-*-*-*-*-*-*-*-*-*-*

e|---------------------------------------------------------------------------|
B|---------------------------------------------------------------------------|
G|7-7-7-7-7-7-7-7-7-7-7-7-7-7-7-7--6-6-6-6-6-6-6-6-6-6-6-6-6-6-6-6-----------|
D|7-7-7-7-7-7-7-7-7-7-7-7-7-7-7-7--7-7-7-7-7-7-7-7-7-7-7-7-7-7-7-7-----------|
A|5-5-5-5-5-5-5-5-5-5-5-5-5-5-5-5--4-4-4-4-4-4-4-4-4-4-4-4-4-4-4-4-----------|
D|---------------------------------------------------------------------------|

e|---------------------------------------------------------------------------|
B|---------------------------------------------------------------------------|
G|5-5-5-5-5-5-5-5-5-5-5-5-5-5-5-5--4-4-4-4-4-4-4-4-4-4-4-4-4-4-4-4-----------|
D|5-5-5-5-5-5-5-5-5-5-5-5-5-5-5-5--5-5-5-5-5-5-5-5-5-5-5-5-5-5-5-5-----------|
A|3-3-3-3-3-3-3-3-3-3-3-3-3-3-3-3--2-2-2-2-2-2-2-2-2-2-2-2-2-2-2-2-----------|
D|---------------------------------------------------------------------------|

e|---------------------------------------------------------------------------|
B|---------------------------------------------------------------------------|
G|7-7-7-7-7-7-7-7-7-7-7-7-7-7-7-7--6-6-6-6-6-6-6-6-6-6-6-6-6-6-6-6-----------|
D|7-7-7-7-7-7-7-7-7-7-7-7-7-7-7-7--7-7-7-7-7-7-7-7-7-7-7-7-7-7-7-7-----------|
A|5-5-5-5-5-5-5-5-5-5-5-5-5-5-5-5--4-4-4-4-4-4-4-4-4-4-4-4-4-4-4-4-----------|
D|---------------------------------------------------------------------------|

e|---------------------------------------------------------------------------|
B|---------------------------------------------------------------------------|
G|5-5-5-5-5-5-5-5-5-5-5-5-5-5-5-5--4-4-4-4-4-4-4-4-4-4-4-4-4-4-4-4-----------|
D|5-5-5-5-5-5-5-5-5-5-5-5-5-5-5-5--5-5-5-5-5-5-5-5-5-5-5-5-5-5-5-5-----------|
A|3-3-3-3-3-3-3-3-3-3-3-3-3-3-3-3--2-2-2-2-2-2-2-2-2-2-2-2-2-2-2-2-----------|
D|---------------------------------------------------------------------------|

e|--------------------------------|
B|--------------------------------|
G|--------------------------------|
D|8-------------------------------|
A|8-------------------------------|
D|8-------------------------------|

e|---------------------------------------------------------------------------|
B|---------------------------------------------------------------------------|
G|7-7-7-7-7-7-7-7------------------------------------------------------------|
D|7-7-7-7-7-7-7-7--7-7-7-7-7-7-7-7--8-8-8-8-8-8-8-8--3-3-3-3-3-3-3-3---------|
A|5-5-5-5-5-5-5-5--7-7-7-7-7-7-7-7--8-8-8-8-8-8-8-8--3-3-3-3-3-3-3-3---------|
D|-----------------7-7-7-7-7-7-7-7--8-8-8-8-8-8-8-8--3-3-3-3-3-3-3-3---------|

e|---------------------------------------------------------------------------|
B|---------------------------------------------------------------------------|
G|---------------------------------------------------------------------------|
D|2-2-2-2-2-2-2-2/7-7-7-7-7-7-7-7--2-2-2-2-2-2-2-2/7-7-7-7-7-7-7-7-----------|
A|2-2-2-2-2-2-2-2/7-7-7-7-7-7-7-7--2-2-2-2-2-2-2-2/7-7-7-7-7-7-7-7-----------|
D|2-2-2-2-2-2-2-2/7-7-7-7-7-7-7-7--2-2-2-2-2-2-2-2/7-7-7-7-7-7-7-7-----------|

e|---------------------------------------------------------------------------|
B|---------------------------------------------------------------------------|
G|7-7-7-7-7-7-7-7------------------------------------------------------------|
D|7-7-7-7-7-7-7-7--7-7-7-7-7-7-7-7--8-8-8-8-8-8-8-8--3-3-3-3-3-3-3-3---------|
A|5-5-5-5-5-5-5-5--7-7-7-7-7-7-7-7--8-8-8-8-8-8-8-8--3-3-3-3-3-3-3-3---------|
D|-----------------7-7-7-7-7-7-7-7--8-8-8-8-8-8-8-8--3-3-3-3-3-3-3-3---------|

e|---------------------------------------------------------------------------|
B|---------------------------------------------------------------------------|
G|---------------------------------------------------------------------------|
D|2-2-2-2-2-2-2-2/7-7-7-7-7-7-7-7--2-2-2-2-2-2-2-2/7-7-7-7-7-7-7-7-----------|
A|2-2-2-2-2-2-2-2/7-7-7-7-7-7-7-7--2-2-2-2-2-2-2-2/7-7-7-7-7-7-7-7-----------|
D|2-2-2-2-2-2-2-2/7-7-7-7-7-7-7-7--2-2-2-2-2-2-2-2/7-7-7-7-7-7-7-7-----------|

e|---------------------------------------------------------------------------|
B|---------------------------------------------------------------------------|
G|7-7-7-7-7-7-7-7------------------------------------------------------------|
D|7-7-7-7-7-7-7-7--7-7-7-7-7-7-7-7--8-8-8-8-8-8-8-8--11-11-11-11-11-11-11-11-|
A|5-5-5-5-5-5-5-5--7-7-7-7-7-7-7-7--8-8-8-8-8-8-8-8--11-11-11-11-11-11-11-11-|
D|-----------------7-7-7-7-7-7-7-7--8-8-8-8-8-8-8-8--11-11-11-11-11-11-11-11-|

e|---------------------------------------------------------------------------|
B|---------------------------------------------------------------------------|
G|7-7-7-7-7-7-7-7------------------------------------------------------------|
D|7-7-7-7-7-7-7-7--7-7-7-7-7-7-7-7--8-8-8-8-8-8-8-8--11-11-11-11-11-11-11-11-|
A|5-5-5-5-5-5-5-5--7-7-7-7-7-7-7-7--8-8-8-8-8-8-8-8--11-11-11-11-11-11-11-11-|
D|-----------------7-7-7-7-7-7-7-7--8-8-8-8-8-8-8-8--11-11-11-11-11-11-11-11-|

e|---------------------------------------------------------------------------|
B|---------------------------------------------------------------------------|
G|7-7-7-7-----------------------------7-7-7-7--------------------6-6-6-6-----|
D|7-7-7-7--7-7-7-7--8-8-8-8--3-3-3-3--7-7-7-7--7-7-7-7--3-3-3-3--6-6-6-6-----|
A|5-5-5-5--7-7-7-7--8-8-8-8--3-3-3-3--5-5-5-5--7-7-7-7--3-3-3-3--4-4-4-4-----|
D|---------7-7-7-7--8-8-8-8--3-3-3-3-----------7-7-7-7--3-3-3-3--------------|

e|---------------------------------------------------------------------------|
B|---------------------------------------------------------------------------|
G|7-7-7-7-----------------------------7-7-7-7--------------------6-6-6-6-----|
D|7-7-7-7--7-7-7-7--8-8-8-8--3-3-3-3--7-7-7-7--7-7-7-7--3-3-3-3--6-6-6-6-----|
A|5-5-5-5--7-7-7-7--8-8-8-8--3-3-3-3--5-5-5-5--7-7-7-7--3-3-3-3--4-4-4-4-----|
D|---------7-7-7-7--8-8-8-8--3-3-3-3-----------7-7-7-7--3-3-3-3--------------|

e|------------------------------------------------------------------------------|
B|------------------------------------------------------------------------------|
G|7-7-----------------7-7------------6-6--7-7-----------------7-7------------6-6|
D|7-7--7-7--8-8--3-3--7-7--7-7--3-3--6-6--7-7--7-7--8-8--3-3--7-7--7-7--3-3--6-6|
A|5-5--7-7--8-8--3-3--5-5--7-7--3-3--4-4--5-5--7-7--8-8--3-3--5-5--7-7--3-3--4-4|
D|-----7-7--8-8--3-3-------7-7--3-3------------7-7--8-8--3-3-------7-7--3-3-----|

************************************

| /   slide up
| \   slide down
| h   hammer-on
| p   pull-off
| ~   vibrato
| +   harmonic
| x   Mute note
| b   Bend
| pb  Pre-bend
| br  Bend release
| pbr Pre-bend release
| brb Bend release bend

************************************
Добавлено: 15.02.2016
Другие материалы по этой песне:
  • Аккорды и текст

Страница создана 14.11.2013
http://primanota.ru/sixxam/goodbye-my-friends-chords.htm
Привет, Гость.
Предлагаем пройти революционный курс по гитаре.
Подарок от PrimaNota.Ru, забирай!