PrimaNota.ru - самый крупный в мире бесплатный архив песенных текстов, аккордов, табулатур и нот


Sixx:A.M. - Drive - таба, видео

Регистрация Запомнить меня
Войти через:  Facebook Google Twitter Vk Yandex Mail.ru

Sixx:A.M. - Drive - таба, видео

Печатать
Просмотров: 69
Sixx AM
   -    Drive

Transcribed by Michael Lewis
   -    Twitter: @MyCool_Lewis

Notes
   -    Light Wah throughout
 

  Solo I
e|-----------------------------------------------------------|
B|-----------------------------------------------------------|
G|-----------------------------------------------------------|
D|-------------8--10-10p8-------------------15~-----15-18-17-|
A|-/11~---/11-------------10~--11p10-11~---------15----------|
E|-----------------------------------------------------------|

e|------------------------------------------------------------|
B|----------------------18-16--------------16-18--------16-18-|
G|-----------16-------------------------18-----------18-------|
D|--------17----18-------------18----18-----------18----------|
A|-15--15-----------16----------------------------------------|
E|------------------------------------------------------------|

e|-----14-13-----------14-13----------16---------------------|
B|-----------16-14-----------16-14-----------------16--------|
G|-18--------------15--------------15--------17-18--------17-|
D|----------------------------------------18-----------18----|
A|-----------------------------------------------------------|
E|-----------------------------------------------------------|

e|------------13-------------14-13--------------------|
B|----16---------16-14-13----------16-14-13----13-----|
G|-18-----17--------------15----------------15----13--|
D|----------------------------------------------------|
A|----------------------------------------------------|
E|----------------------------------------------------|

e|---------------------------16----------------------------16-|
B|-------16-18--------16-18---------------16-----------16-----|
G|----18-----------18---------------17-18--------17-18--------|
D|-18-----------18---------------18-----------18--------------|
A|------------------------------------------------------------|
E|------------------------------------------------------------|

e|---------------------------16---------|
B|-14~-------16fbrp14-16fb------rb-14---|
G|--------------------------------------|
D|--------------------------------------|
A|--------------------------------------|
E|--------------------------------------|


 Solo II
e|-----------------------------------------------------|
B|-------16-18--------16-18-----------16-----------16--|
G|----18-----------18-----------15-18--------15-18-----|
D|-18-----------18-----------18-----------18-----------|
A|-----------------------------------------------------|
E|-----------------------------------------------------|

e|----------------------------------------------------16-|
B|-------16-18--------16-18-----------16-----------16----|
G|----18-----------18-----------15-18--------15-18-------|
D|-18-----------18-----------18-----------18-------------|
A|-------------------------------------------------------|
E|-------------------------------------------------------|

e|--------------------------16--------------------------16--|
B|-------16-18--------16-18-------------16-----------16-----|
G|----18-----------18-------------15-18--------15-18--------|
D|-18-----------18-------------18-----------18--------------|
A|----------------------------------------------------------|
E|----------------------------------------------------------|

e|--------------16------------------16fbr------------------16-|
B|-13----13-12------12-13----13-12---------12-13----13-12-----|
G|------------------------------------------------------------|
D|------------------------------------------------------------|
A|------------------------------------------------------------|
E|------------------------------------------------------------|

e|----------------------------------------|
B|----------------------------------------|
G|-13fbr----13-----13---------------------|
D|-------------13-------13--11------------|
A|--------------------------------11------|
E|----------------------------------------|


Legend:
p - pull off
h - hammer on
fb - full bend (one whole step)
r - release bend
/\ - slide up, down
~ - Vibrato 
Добавлено: 15.02.2016
Другие материалы по этой песне:
  • Аккорды и текст

Страница создана 15.02.2016
http://primanota.ru/sixxam/drive-chords.htm
Привет, Гость.
Предлагаем пройти революционный курс по гитаре.
Подарок от PrimaNota.Ru, забирай!