PrimaNota.ru - самый крупный в мире бесплатный архив песенных текстов, аккордов, табулатур и нот


Sixx Am - X-mas In Hell - таба, бас-таба, видео

Регистрация Запомнить меня
Войти через:  Facebook Google Twitter Vk Yandex Mail.ru

Sixx Am - X-mas In Hell - таба, бас-таба, видео

Печатать
Просмотров: 362
-------------------------------------------------------------------------------
                             X-mas in Hell - Sixx:A.M.
-------------------------------------------------------------------------------

Tuning: Standard

Sounds mostly correct. I play it with a wah pedal. Its a pretty easy solo to play.

e|-5-3h5---5-3h5---5-3h5---5-3h5---4-2h4---4-2h4---4-2h4---4-2h4-------------|
B|-------6-------6-------6-------6-------5-------5-------5-------5-----------|
G|---------------------------------------------------------------------------|
D|---------------------------------------------------------------------------|
A|---------------------------------------------------------------------------|
E|---------------------------------------------------------------------------|

e|---------------------------------------------------------------------------|
B|-14-12h14----14-12h14----14-12h14----14-12h14----13-11h13----13-11h13------|
G|----------15----------15----------15----------15----------14----------14---|
D|---------------------------------------------------------------------------|
A|---------------------------------------------------------------------------|
E|---------------------------------------------------------------------------|

e|-------------------------15-15-15-13-11-10---------------------------------|
B|-13-11h13----13-11h13----------------------11-11-13-13-13-15-13-11-8-8-----|
G|----------14----------14---------------------------------------------------|
D|---------------------------------------------------------------------------|
A|---------------------------------------------------------------------------|
E|---------------------------------------------------------------------------|

e|-10-10h11p10--10-10h11p10--14-14h15p14--14-14h15p14------------------------|
B|---------------------------------------------------------------------------|
G|---------------------------------------------------------------------------|
D|---------------------------------------------------------------------------|
A|---------------------------------------------------------------------------|
E|---------------------------------------------------------------------------|

e|-15-15-15-13-11-10---------------------------------|
B|-------------------11-11-13-13-13-15-13-11-8-8-----|
G|---------------------------------------------------|
D|---------------------------------------------------|
A|---------------------------------------------------|
E|---------------------------------------------------|

e|-10-10h11p10--14-14h15p14--17-17h18p17--10--15-----|
B|---------------------------------------------------|
G|---------------------------------------------------|
D|---------------------------------------------------|
A|---------------------------------------------------|
E|---------------------------------------------------|

Thats about it.

| /  slide up
| \  slide down
| h  hammer-on
| p  pull-off
| ~  vibrato
| +  harmonic
| x  Mute note
===============================================================================
Добавлено: 14.04.2012
Другие материалы по этой песне:

Страница создана 29.02.2012
http://primanota.ru/sixx-am/x-mas-in-hell-chords.htm
Привет, Гость.
Предлагаем пройти революционный курс по гитаре.
Подарок от PrimaNota.Ru, забирай!