PrimaNota.ru - самый крупный в мире бесплатный архив песенных текстов, аккордов, табулатур и нот


Sixteen Horespower - Flutter - таба, видео

Регистрация Запомнить меня
Войти через:  Facebook Google Twitter Vk Yandex Mail.ru

Sixteen Horespower - Flutter - таба, видео

Печатать
Просмотров: 56
song: flutter
band: sixteen horsepower
album: folklore
tabbed by: joel (j_sorensson@hotmail.com)

tuning: standard


Verse guitar:
e------------- ----------------- ------------- -----------------
b------------- ------------4-3-- ------------- -----------------
g----0-2-3---- ----0-2-3-5------ ----0-2-3---- ----0-2-3/5\3-0--
d------------- ----------------- ------------- -----------------
a------------- ----------------- ------------- -----------------
e-3---------1- -3--------------- -3---------1- -3---------------
	x3				x3

Verse fill:
e---------6-6-5-5---------6-6-------------6-6-5-5-
b-----------------------------8-8-----------------
g-------------------------------------------------
d-------------------------------------------------
a-------------------------------------------------
e-------------------------------------------------


chorus:
  Cm      Bb    Am	 Bb
e--------------------------
b-------6------------------
g--5--8--------------------
d-(5)------8----7--------8-
a-(6)----------------------
e---------(6)--(5)---------


.moody. questions? comments? corrections? pics of cheese?
mail me.

_________________________________________________________________
     
Добавлено: 20.09.2013
Другие материалы по этой песне:
  • Аккорды и текст

Страница создана 20.09.2013
http://primanota.ru/sixteen-horespower/flutter-chords.htm
Привет, Гость.
Предлагаем пройти революционный курс по гитаре.
Подарок от PrimaNota.Ru, забирай!