PrimaNota.ru - самый крупный в мире бесплатный архив песенных текстов, аккордов, табулатур и нот


Sixpence None The Richer - Paralyzed - текст песни, таба, видео

Регистрация Запомнить меня
Войти через:  Facebook Google Twitter Vk Yandex Mail.ru

Sixpence None The Richer - Paralyzed - текст песни, таба, видео

Печатать
Просмотров: 122


Sixpence None The Richer
Paralyzed

by Snazz

Intro
E:|-------------------------|-------------------------|----------------------|----------------------|
B:|-------------------------|----------12-------------|----------------------|----------------------|
G:|----13-13b------13-13b---|----13-14----14-13----11-|----13-13b---13--13---|-14-13-11-----11------|
D:|-11----------11----------|-11----------------14----|-11-------------------|-----------14----9-11-| x2
A:|-------------------------|-------------------------|----------------------|----------------------|
E:|-------------------------|-------------------------|----------------------|----------------------|

Verse 1
E:|-------------------------|-------------------------|
B:|-------------------------|-------------------------|
G:|-------------------------|-------------------------|
D:|-11-11-11-12-12-12-12-12-|-14-14-14--9-11-12-11-9--| x4
A:|-------------------------|-------------------------|
E:|-------------------------|-------------------------|

E:|-------------------------|-------------------------|----------------------|----------------------|
B:|-------------------------|----------12-------------|----------------------|----------------------|
G:|----13-13b------13-13b---|----13-14----14-13----11-|----13-13b---13--13---|-14-13-11-----11------|
D:|-11----------11----------|-11----------------14----|-11-------------------|-----------14----9-11-|
A:|-------------------------|-------------------------|----------------------|----------------------|
E:|-------------------------|-------------------------|----------------------|----------------------|

Verse 2
E:|-------------------------|-------------------------|
B:|-------------------------|-------------------------|
G:|-------------------------|-------------------------|
D:|-11-11-11-12-12-12-12-12-|-14-14-14--9-11-12-11-9--| x4
A:|-------------------------|-------------------------|
E:|-------------------------|-------------------------|

E:|-------------------------|-------------------------|
B:|------------10-----------|------------9------------|
G:|-------11---------11-----|-------11--------10------|
D:|-11----------------------|-11----------------------|
A:|-9-----------------------|-8-----------------------|
E:|-------------------------|-------------------------|

Chorus 1
E:|--------------------|--------------------|    |----------5--------|
B:|--------------------|--------------------|    |----------5--------|
G:|-7-7-7--------------|--------------------|    |-7-7-7----6--------|
D:|-7-7-7----7-7-7-----|-7-7-7----4-4-4-----| x3 |-7-7-7----7--------|
A:|-5-5-5----7-7-7-----|-7-7-7----4-4-4-----|    |-5-5-5----7--------|
E:|----------5-5-5-----|-4-4-4----2-2-2-----|    |----------5--------|

E:|--------------------|--------------------|--------------------|--------------------|
B:|--------------------|--------------------|--------------------|--------------------|
G:|--------------------|--------------------|--------------------|--------------------|
D:|--------------------|--------------------|--------------------|--------------------|
A:|--------------------|--------------------|--------------------|--------------------|
E:|--------------------|--------------------|--------------------|--------------------|

Verse 3
E:|-9------------------|-9------------------|-9------------------|-9------------------|
B:|-10-----------------|-10-----------------|-10-----------------|-10-----------------|
G:|-11-----------------|-11-----------------|-11-----------------|-11-----------------|
D:|-11-----------------|-11-----------------|-11-----------------|-11-----------------|
A:|-9------------------|-9------------------|-9------------------|-9------------------|
E:|--------------------|--------------------|--------------------|--------------------|

E:|-------------------------|-------------------------|
B:|-------------------------|-------------------------|
G:|-------------------------|-------------------------|
D:|-11-11-11-12-12-12-12-12-|-14-14-14--9-11-12-11-9--| x2
A:|-------------------------|-------------------------|
E:|-------------------------|-------------------------|

E:|-------------------------|-------------------------|
B:|------------10-----------|------------9------------|
G:|-------11--------11------|-------11--------10------|
D:|-11----------------------|-------------------------|
A:|-9---------------------9-|-8-----------------------|
E:|-------------------------|-------------------------|

Chorus 2
E:|--------------------|--------------------|    |----------5--------|
B:|--------------------|--------------------|    |----------5--------|
G:|-7-7-7--------------|--------------------|    |-7-7-7----6--------|
D:|-7-7-7----7-7-7-----|-7-7-7----4-4-4-----| x3 |-7-7-7----7--------|
A:|-5-5-5----7-7-7-----|-7-7-7----4-4-4-----|    |-5-5-5----7--------|
E:|----------5-5-5-----|-4-4-4----2-2-2-----|    |----------5--------|

E:|----------------------|-------------------------|--------------------|-----------------------|
B:|----------------------|----------12-------------|--------------------|-----------------------|
G:|----13-13b-----13-13b-|----13-14----14-13----11-|----13-13b--13--13--|-14-13-11-----11-------|
D:|-11---------11--------|-11----------------14----|-11-----------------|-----------14----9-11--| x2
A:|----------------------|-------------------------|--------------------|-----------------------|
E:|----------------------|-------------------------|--------------------|-----------------------|

E:|----16-16b-----16-16b-|----16-17-19-17-16----14-|----16-16b--16--16--|-17-16-14--12-14-------|
B:|-14---------14--------|-14----------------17----|-14-----------------|-----------------12-14-|
G:|----------------------|-------------------------|--------------------|-----------------------|
D:|----------------------|-------------------------|--------------------|-----------------------|
A:|----------------------|-------------------------|--------------------|-----------------------|
E:|----------------------|-------------------------|--------------------|-----------------------|

E:|----16-16b-----16-16b-|----16-17-19-17-16----14-|-16-----------------|-----------------------|
B:|-14---------14--------|-14----------------17----|----14-12-----------|-----------------------|
G:|----------------------|-------------------------|------------14---13-|-11--------------------|
D:|----------------------|-------------------------|--------------------|------14---12----------|
A:|----------------------|-------------------------|--------------------|-----------------------|
E:|----------------------|-------------------------|--------------------|-----------------------|

E:|-14-------------------|-------------------------|--------------------|-----------------------|
B:|----------------------|-------------------------|-14-------15--------|-----------------------|
G:|----------------------|-------------------------|--------------------|-----------------------|
D:|----------------------|-------------------------|--------------------|-----------------------|
A:|----------------------|-----------------12--11--|--------------------|---------------12--11--|
E:|----------------------|-------------------------|--------------------|-----------------------|

E:|-14-------------------|-------------------------|--------------------|-----------------------|
B:|----------------------|-------------------------|-14-------15--------|-----------------------|
G:|----------------------|-------------------------|--------------------|-----------------------|
D:|----------------------|-------------------------|--------------------|-----------------------|
A:|----------------------|-----------------12--11--|--------------------|-----------------------|
E:|----------------------|-------------------------|--------------------|-----------------------|

E:|-9--------------------|-------------------------|
B:|-10-------------------|-------------------------|
G:|-11-------------------|-------------------------|
D:|-11-------------------|-------------------------|
A:|-9--------------------|-------------------------|
E:|----------------------|-------------------------|


Lyrics
------
[Intro]

[Verse 1]
I look out to the fields
Where blood is shed upon the ground
I breathe in, I breathe out
Change the channel, mute the sound
I take a match, a cigarette, and a walk to clear my head
My stomach's reeling at the thought of all those human beings dead

[Verse 2]
I breathe in, I breathe out
I'm going to an interview
About a song, three minutes long
I just need something to do
Especially when my dearest friend
Was sent to cover Kosovo
His last assignment brought a bullet
And now he's gone, he's gone

[Chorus 1]
Feels like I'm fiddling while Rome is burning down
Should I lay my fiddle down and take a rifle from the ground
I need a ghost to breathe a northern gale tonight
'Cause I'm paralyzed, I'm paralyzed

[Verse 3]
I packed his books up, left the office,
Went to tell the wife the news
She fell in shock, the baby kicked, and shed a tear inside the womb
I breathe in, I breathe out
Soak the ground up with my eyes
It's hard to say a healing word
When your tongue is paralyzed

[Chorus 2]
Feels like I'm fiddling while Rome is burning down
Should I lay my fiddle down and take a rifle from the ground
I need a ghost to breathe a northern gale tonight
'Cause I'm paralyzed, I'm paralyzed

I breathe in, I breathe out
I breathe in, I breathe out
I breathe in, I breathe out


Добавлено: 19.08.2013
Другие материалы по этой песне:
  • Аккорды и текст

Страница создана 25.07.2012
http://primanota.ru/sixpence-none-the-richer/paralyzed-chords.htm
Привет, Гость.
Предлагаем пройти революционный курс по гитаре.
Подарок от PrimaNota.Ru, забирай!