PrimaNota.ru - самый крупный в мире бесплатный архив песенных текстов, аккордов, табулатур и нот


Six Organs Of Admittance - Saint Of Fishermen - таба, видео

Регистрация Запомнить меня
Войти через:  Facebook Google Twitter Vk Yandex Mail.ru

Six Organs Of Admittance - Saint Of Fishermen - таба, видео

Печатать
Просмотров: 66
Уроки эстрадного вокала в Санкт-Петербурге
DADGAD tuning

Capo 1st fret



------------------------------------------------------------------------------------|
-----0----5p4p2p0--0---------2-----2-----2s4p2p0------------------------------------|
---------------------------2----2----2------------------------2-------------2-------|
-------------------------2-----------------------2--------2h4-----------2h4----4--4-|
--0---------------------------------------------------------------------------------|
-------------------------------------------------------4-------------4--------------|





-------------2--2---------------------------------------------------------------------|
--------2h4----------5-4h5------0--5p4p0--0-------------------------------------------|
-----2------------2----------------------------4s2------------2--------------2--------|
----------------------------------------------------------2h4-----------2h4-----4--4--|
--0-------------------------0---------------------------------------------------------|
-------------------------------------------------------4-------------4----------------|




-------------2------------4p2---------7p6-2---------4p2-------------------------------------------|
-------2h4------0----0--------0---0----------0--0-------0--0--------------------------------------|
------------------------------------------------------------------------------2----------2--------|
---------------------------------------------------------------2---------2h4---------2h4----4--4--|
----0--------------------------------------------------------------0------------------------------|
-----------------------------------------------------------------------4----------4---------------|



---------0h2--2--2----2---0----------------------------0h2--2---2-2s4s2p0-0------------------------|
-----------------------------------------2---4------------------------------2-------2---4-------0--|
--------------------------------4s2-------------------------------------------2--------------------|
------2------------------------------2---------------2--------------------------2-----------------2|
-----------------------------------------4------------------------------------------4--------------|
---2-----------------------------------------------2-----------------------------------------------|


----0---------------------------------------------------------------------------------------------|
-------4--0---------2s4s5-----4p2----0---------------------------------------0--2--0----0--4------|
---------------------------2------2-----2------------2----------2---------------------------------|
------------2------------------------------2-----2h4-------2h4-----4--4---------------2-----------|
----2------------0--------------------------------------------------------0-----------------------|
-----------------------------------------------4--------4-----------------------------------------|
Добавлено: 20.11.2013
Другие материалы по этой песне:
  • Аккорды и текст

Страница создана 20.11.2013
http://primanota.ru/six-organs-of-admittance/saint-of-fishermen-chords.htm
Привет, Гость.
Предлагаем пройти революционный курс по гитаре.
Подарок от PrimaNota.Ru, забирай!