PrimaNota.ru - самый крупный в мире бесплатный архив песенных текстов, аккордов, табулатур и нот


Six Feet Under - My Hatred - текст песни, таба, бас-таба, видео

Регистрация Запомнить меня
Войти через:  Facebook Google Twitter Vk Yandex Mail.ru

Six Feet Under - My Hatred - текст песни, таба, бас-таба, видео

Печатать
Просмотров: 121
-------------------------------------------------------------------------------
                             SONG NAME - Band Name
-------------------------------------------------------------------------------
Tabbed by:
E-mail:

Tuning:
  Intro                                                           My Hatred......
e|-------------------------|-------------------------|---------------------------|
B|-------------------------|-------------------------|---------------------------|
G|-------------------------|-------------------------|---------------------------|
D|-------------------------|-------------------------|---------------------------|
A|--2-2-2-2-2-2-2-2-2-2-2--|--2-2-2-2-2-2-2-2-2-2-2--|--2-2-2-2-2-2-2-2-2-2-2----|
E|--0-0-0-0-0-0-0-0-0-0-0--|--0-0-0-0-0-0-0-0-0-0-0--|--0-0-0-0-0-0-0-0-0-0-0----|

e|---------------|---------------|------------------|----------------|---------------|
B|---------------|---------------|------------------|----------------|---------------|
G|---------------|---------------|------------------|----------------|---------------|
D|--5--4---------|--7--6---------|------------------|----------------|---------------|
A|--3--2---5--4--|--5--4---7--8--|---5-2-2-2-2-2-2--|--2-2-2-2-2-2---|--2-2-2-2-2-2--|
E|---------3--2--|---------5--6--|---3-0-0-0-0-0-0--|--0-0-0-0-0-0---|--0-0-0-0-0-0--|

e|-----------------|
B|-----------------|
G|-----------------|
D|----------3--6---|
A|--2-2-2-2-1--4---|
E|--0-0-0-0--------|

 Cant think straight...
e|---------------|---------------|---------------|---------------|
B|---------------|---------------|---------------|---------------|
G|---------------|---------------|---------------|---------------|
D|--5--4---------|--7--6---------|--5--4---------|--7--6---------|
A|--3--2---5--4--|--5--4---5--6--|--3--2---5--4--|--5--4---5--6--|
E|---------3--2--|---------5--6--|---------3--2--|---------5--6--|


  Hell Yeah.....
e|----------------|---------------|---------------|----------------|
B|----------------|---------------|---------------|----------------|
G|----------------|---------------|---------------|----------------|
D|----------------|---------------|---------------|----------3--6--|
A|-5-2-2-2-2-2-2--|--2-2-2-2-2-2--|--2-2-2-2-2-2--|--2-2-2-2-1--4--|
E|-3-0-0-0-0-0-0--|--0-0-0-0-0-0--|--0-0-0-0-0-0--|--0-0-0-0-------|

  Hell Yeah.....
e|----------------|---------------|---------------|----------------|
B|----------------|---------------|---------------|----------------|
G|----------------|---------------|---------------|----------------|
D|----------------|---------------|---------------|----------3--6--|
A|-5-2-2-2-2-2-2--|--2-2-2-2-2-2--|--2-2-2-2-2-2--|--2-2-2-2-1--4--|
E|-3-0-0-0-0-0-0--|--0-0-0-0-0-0--|--0-0-0-0-0-0--|--0-0-0-0-------|


e|----------------|---------------|---------------|----------------|
B|----------------|---------------|---------------|----------------|
G|----------------|---------------|---------------|----------------|
D|----------------|---------------|---------------|----------3--6--|
A|-5-2-2-2-2-2-2--|--2-2-2-2-2-2--|--2-2-2-2-2-2--|--2-2-2-2-1--4--|
E|-3-0-0-0-0-0-0--|--0-0-0-0-0-0--|--0-0-0-0-0-0--|--0-0-0-0-------|

  What The Fuck.....
e|----------------|---------------|---------------|----------------|
B|----------------|---------------|---------------|----------------|
G|----------------|---------------|---------------|----------------|
D|----------------|---------------|---------------|----------3--6--|
A|-5-2-2-2-2-2-2--|--2-2-2-2-2-2--|--2-2-2-2-2-2--|--2-2-2-2-1--4--|
E|-3-0-0-0-0-0-0--|--0-0-0-0-0-0--|--0-0-0-0-0-0--|--0-0-0-0-------|


e|----------------|---------------|---------------|----------------|
B|----------------|---------------|---------------|----------------|
G|----------------|---------------|---------------|----------------|
D|----------------|---------------|---------------|----------3--6--|
A|-5-2-2-2-2-2-2--|--2-2-2-2-2-2--|--2-2-2-2-2-2--|--2-2-2-2-1--4--|
E|-3-0-0-0-0-0-0--|--0-0-0-0-0-0--|--0-0-0-0-0-0--|--0-0-0-0-------|

 I Live This Life.....
e|---------------|---------------|---------------|---------------|
B|---------------|---------------|---------------|---------------|
G|---------------|---------------|---------------|---------------|
D|--5--4---------|--7--6---------|--5--4---------|--7--6---------|
A|--3--2---5--4--|--5--4---5--6--|--3--2---5--4--|--5--4---5--6--|
E|---------3--2--|---------5--6--|---------3--2--|---------5--6--|


e|----------------------------------------------------------------------------------|
B|----------------------------------------------------------------------------------|
G|----------------------------------------------------------------------------------|
D|----------------------------------------------------------------------------------|
A|-222-2-2-2-222-2-2-2-222-2-2-2-222-2-2-2-222-2-2-2-222-2-2-2-222-2-2-2-222-2-2-2--|
E|-000-0-0-0-000-0-0-0-000-0-0-0-000-0-0-0-000-0-0-0-000-0-0-0-000-0-0-0-000-0-0-0--|

e|----------------------------------------------------------------------------------|
B|----------------------------------------------------------------------------------|
G|----------------------------------------------------------------------------------|
D|----------------------------------------------------------------------------------|
A|-333-3-3-3-333-3-3-3-333-3-3-3-333-3-3-3-333-3-3-3-333-3-3-3-333-3-3-3-333-3-3-3--|
E|-111-1-1-1-111-1-1-1-111-1-1-1-111-1-1-1-111-1-1-1-111-1-1-1-111-1-1-1-111-1-1-1--|

 Nothing Will.......
e|--------------------------------------------------------------------------|
B|--------------------------------------------------------------------------|
G|--------------------------------------------------------------------------|
D|--------------------------------------------------------------------------|
A|-------5-------5-------5-------5-------5-------5-------5-------5----------|
E|-22222-3-22222-3-22222-3-22222-3-22222-3-22222-3-22222-3-22222-3----------|

 Nothing Will........
e|----------------------------------------------------------------------------------|
B|----------------------------------------------------------------------------------|
G|----------------------------------------------------------------------------------|
D|----------------------------------------------------------------------------------|
A|-222-2-2-2-222-2-2-2-222-2-2-2-222-2-2-2-222-2-2-2-222-2-2-2-222-2-2-2-222-2-2-2--|
E|-000-0-0-0-000-0-0-0-000-0-0-0-000-0-0-0-000-0-0-0-000-0-0-0-000-0-0-0-000-0-0-0--|

  My Hatred.....
e|-------------------------|-------------------------|---------------------------|
B|-------------------------|-------------------------|---------------------------|
G|-------------------------|-------------------------|---------------------------|
D|-------------------------|-------------------------|---------------------------|
A|--2-2-2-2-2-2-2-2-2-2-2--|--2-2-2-2-2-2-2-2-2-2-2--|--2-2-2-2-2-2-2-2-2-2-2----|
E|--0-0-0-0-0-0-0-0-0-0-0--|--0-0-0-0-0-0-0-0-0-0-0-0|--0-0-0-0-0-0-0-0-0-0-0----|

  Gtr. 1
e|-------------------------|-------------------------|---------------------------|
B|-------------------------|-------------------------|---------------------------|
G|-------------------------|-------------------------|---------------------------|
D|-------------------------|-------------------------|---------------------------|
A|--2-2-2-2-2-2-2-2-2-2-2--|--2-2-2-2-2-2-2-2-2-2-2--|--2-2-2-2-2-2-2-2-2-2-2----|
E|--0-0-0-0-0-0-0-0-0-0-0--|--0-0-0-0-0-0-0-0-0-0-0--|--0-0-0-0-0-0-0-0-0-0-0----|

  Gtr. 2
e|---------------|---------------|---------------|---------------|
B|---------------|---------------|---------------|---------------|
G|---------------|---------------|---------------|---------------|
D|--5--4---------|--7--6---------|--5--4---------|--7--6---------|
A|--3--2---5--4--|--5--4---5--6--|--3--2---5--4--|--5--4---5--6--|
E|---------3--2--|---------5--6--|---------3--2--|---------5--6--|



************************************

| /   slide up
| \   slide down
| h   hammer-on
| p   pull-off
| ~   vibrato
| +   harmonic
| x   Mute note
| b   Bend
| pb  Pre-bend
| br  Bend release
| pbr Pre-bend release
| brb Bend release bend

************************************
Добавлено: 20.06.2015
Другие материалы по этой песне:

Страница создана 24.02.2012
http://primanota.ru/six-feet-under/my-hatred-chords.htm
Привет, Гость.
Предлагаем пройти революционный курс по гитаре.
Подарок от PrimaNota.Ru, забирай!