PrimaNota.ru - самый крупный в мире бесплатный архив песенных текстов, аккордов, табулатур и нот


Six Feet Under - Haunted - текст песни, таба, видео

Регистрация Запомнить меня
Войти через:  Facebook Google Twitter Vk Yandex Mail.ru

Six Feet Under - Haunted - текст песни, таба, видео

Печатать
Просмотров: 209
                            SIX FEET UNDER - HAUNTED         
                            From the Album - HAUNTED 
                       Copyright - METALBLADE RECORDS 1995
                           Version 1.0 - Aug 31, 2002

Transcribed By: James Williams (Inverted) 

For Questions, Comments, Newest Version, Corrections or Request; 
Contact Inverted: at Inverted_one@hotmail.com 

Check Out Death8699.com, With More Transcriptions On It: 
http://www.death8699.com 

.  - palm mute           /  - slide up to 
\  - slide down to       ~  - vibrato 
h  - hammer on           b  - Bend 
p  - pull off            Suffixes for bend 
t  - tap                 f  - full bend    h - half bend 
ph - pinched harmonic    q  - quarter bend t - tap bend 
*  - see comment         ^  - Hold bend    r release bend 
x  - Stuccatto           ~  - vibrato bend 
,  - slight palm mute    () - ghost note, sustained note 
"  - tremolo note        <> - Trill 

Tunning "D"G"C"F"A"D" 


Riff 1
|-------------------------------------------------------|
|-------------------------------------------------------|
|-------------------------------------------------------|
|---------2-----------2--3-----------2--------3------4--|
|---------2-----------2--3-----------2--------1------2--|
|--0--0-0-0----0--0-0-0--1----0--0-0-0----1-0----1-0----|
   .  . .      .  . .         .  . .      . .    . .

Riff 2
|-------------------------------------------------------------|
|-------------------------------------------------------------|
|-------------------------------------------------------------|
|------------------------------------------------------5---4--|
|------------------------------------------------------3---2--|
|--2-2-2-2-2-2-2-2-2-2-3-3-3-3-0-0-2-2-2-2-2-2-2-2-2-2---0----|
   . . . . . . . . . . . . . . . . . . . . . . . . . .   .

Riff 3 (Solo Riff)
|-----------------------------|
|-----------------------------|
|-----------------------------|
|-----------------------------|
|--2------2---------5------4--|
|--0--0-0-0--0-0--0-3--0-0-2--|
      . .    . .  .    . .

Solo
|-------------------------------------------------------------------------
|-----------------------------------------15"17"15"-----------------------
|--------------------------------14"16"17"---------17"16"14"--------------
|--------------------12"14"16"17"---------------------------17"16"14~-----
|-----------12"14"15"-----------------------------------------------------
|--12"14"15"--------------------------------------------------------------
    .  .  .  .  .  .  .  .  .  .

--------------------------------------------------------------------------
------------------------------------15h17p15--------------bh--------------
----------------bf------------16-17----------17-16-14--14-16r(16)---------
--14h16h17--14--14^----14~----------------------------------------16-14~--
--------------------------------------------------------------------------
--------------------------------------------------------------------------


-------------------------------------15-14----------------bf--------------
--------------------15"17"15"--------------17-15----15-15-17r(17)---------
-----------14"16"17"---------17"16~--------------18----------------17-16~-
--14"16"17"---------------------------------------------------------------
--------------------------------------------------------------------------
--------------------------------------------------------------------------


-----------15^--slowly--r(15)-----|
-----------bf---------------------|
----------------------------------|
----------------------------------|
--bf------------------------------|
--12^--------------------------/--|


End
|--------------|
|--------------|
|--------------|
|----------2x--|
|----------2x--|
|--0-0-0-0-0x--|
   . . . .


Check out my other tabs by: Deicide, Obituary, Hypocrisy, 
Grave, Catastrophic, Six Feet Under, Incantation, Death and 
Cannibal Corpse.
Добавлено: 01.10.2013
Другие материалы по этой песне:
  • Аккорды и текст

Страница создана 31.07.2012
http://primanota.ru/six-feet-under/haunted-chords.htm
Привет, Гость.
Предлагаем пройти революционный курс по гитаре.
Подарок от PrimaNota.Ru, забирай!