PrimaNota.ru - самый крупный в мире бесплатный архив песенных текстов, аккордов, табулатур и нот


Six Feet Under - Ghost of the undead - таба, видео

Регистрация Запомнить меня
Войти через:  Facebook Google Twitter Vk Yandex Mail.ru

Six Feet Under - Ghost of the undead - таба, видео

Печатать
Просмотров: 118


riff
 (G)(A#) (c)   (c#)
e----------------------------------------------
B----------------------------------------------
G----------------------------------------------
D-5-8-10---5-8-11-10---5-8-10-8-5--------------
A-5-8-10---5-8-11-10---5-8-10-8-5--------------
E-3-6-8----3-6-9--8----3-6-8--6-3--------------

e----------------------------------------------
B---------repeat this--------------------------
G---------until the------then------------------
D-----5---the 2nd word------------3------------
A---5-----of the forth----------3--------------
E-3-------line----------------1----------------

e----------------------------------------------
B----------------------------------------------
G----------------------------------------------
D-10----8----------------5---------------------
A-10----8----------------5---------------------
E-8-----6----------------3---------------------

Добавлено: 05.08.2013
Другие материалы по этой песне:
  • Аккорды и текст

Страница создана 05.08.2013
http://primanota.ru/six-feet-under/ghost-of-the-undead-chords.htm
Привет, Гость.
Предлагаем пройти революционный курс по гитаре.
Подарок от PrimaNota.Ru, забирай!