PrimaNota.ru - самый крупный в мире бесплатный архив песенных текстов, аккордов, табулатур и нот


Six Feet Deep - Steadfast - таба, видео

Регистрация Запомнить меня
Войти через:  Facebook Google Twitter Vk Yandex Mail.ru

Six Feet Deep - Steadfast - таба, видео

Печатать
Просмотров: 63
		   Author/Artist: Six Feet Deep
Title: Steadfast
Album: The Road Less Traveled
Transcribed by: John Farthing
Email: farthing@swbell.net

This song is tuned down to Eb

Intro:
|---------------------------------------------------|
|---------------------------------------------------|
|-----7-9-9-9--7-7-7--5----5-5-5-4-4-4-5-5----------|
|-2---7/9-9-9--7-7-7--5----5-5-5\4-4-4-5-5--5--2----|
|-2---5/7-7-7--5-5-5--3----3-3-3\2-2-2-3-3--5--2----|
|-0-----------------------------------------3--0----|
                                                                              

|---------------------------------------------|
|---------------------------------------------|
|-----7/9-9-9--7-7-7--10--5-5-5--10-10-10-----|
|-2---7/9-9-9--7-7-7--10--5-5-5--10-10-10-----|
|-2---5/7-7-7--5-5-5--8---3-3-3--8--8--8------|
|-0-------------------------------------------|
                                                                              


Verse:
|-----------------------------------------|
|-----------------------------------------|
|----4--2--4--5------4--2--4--5--7-7-7----|
|-2--4--2--4--5---2--4--2--4--5--7-7-7----|
|-2--2--0--2--3---2--2--0--2--3--5-5-5----|
|-0---------------0-----------------------|
                                                                              
then it changes to
|--------------------------------|
|--------------------------------|
|----4--2--4--2------4--2--4\2---|
|-2--4--2--4--2---2--4--2--4\2---|
|-2--2--0--2--0---2--2--0--2\0---|
|-0---------------0--------------|



And there you have it, if anyone has tabs for Angry Son, Front, or Congruent
send them to me at farthing@swbell.net      
Добавлено: 04.09.2013
Другие материалы по этой песне:
  • Аккорды и текст

Страница создана 04.09.2013
http://primanota.ru/six-feet-deep/steadfast-chords.htm
Привет, Гость.
Предлагаем пройти революционный курс по гитаре.
Подарок от PrimaNota.Ru, забирай!