PrimaNota.ru - самый крупный в мире бесплатный архив песенных текстов, аккордов, табулатур и нот


Six Feet Deep - Release - таба, видео

Регистрация Запомнить меня
Войти через:  Facebook Google Twitter Vk Yandex Mail.ru

Six Feet Deep - Release - таба, видео

Печатать
Просмотров: 65
		   Release
Six Feet Deep
1994 SONIC CHAOS/ASCAP
R.E.X. Music

A very touching song. The lyrics tell my life story. Yet another song tabbed 
using Irish Joe's accoustic guitar. Tune to C sharp. They use three guitars on 
this song.
g1=gutar 1, g2=guitar 2, g3=guitar three.For the sake of saving space I have 
decided to exclude the top three strings on some parts(You don't need 'em 
anyway)
|---------|-----------------------|--------------------------------------------|
|---------|-----------------------|--------------------------------------------|
|---------|-----------------------|--------------------------------------------|
|----2----|---9---9-9-------------|----9----9-9-9----10-10-10-10---------------|
|----2----|---7---7-7----5---555--|----7----7-7-7-----8--8--8--8---------------| x4
|----0----|-----------------------|--------------------------------------------|
g1 holds           g2
|-------------------------------------------------------------------|
|-------fourth time-----------g1,2----------------------------------|
|-------------------------------------------------------------------|
|--2-2-2-2-2-2-2-2-2-2-2-2-3----------------------------------------|
|--2-2-2-2-2-2-2-2-2-2-2-2-3----------------------------------------|
|--0-0-0-0-0-0-0-0-0-0-0-0-1----------------------------------------|

riff a
        
|----------------------------------------------------------------------|
|------------g-1,2-----------------------------------------------------|
|----------------------------------------------------------------------|        
|---9---9-9-------------|----9----9-9-9----10-10-10-10-----------------|        
|---7---7-7----5---555--|----7----7-7-7-----8--8--8--8-----------------| x8        
|---0-------------------|----------------------------------------------|
                                                                        on this  
chord g2 only plays 10 
On the fourth and eighth time stop on the first 8-10 power chord
|--------------------------------------------------------------------------------|
|---------------then--g1,2-------------------------------------------------------|
|--------------------------------------------------------------------------------|
|-2-2-2-2-2-2-2-2-2-2-2-2-2-5----------------------------------------------------|
|-2-2-2-2-2-2-2-2-2-2-2-2-2-5----------------------------------------------------|
|-0-0-0-0-0-0-0-0-0-0-0-0-0-3----------------------------------------------------|

   riff b
g2(|---7---7---7---7---7-7---7--7--7---|-----------------------|) played on the fifth string     
|---------2--------|---------5--------|--------2---------|--------5-------|--------7--8-7-8----|g1 
|---------2--------|---------5--------|--------2---------|--------5-------|--------7--8-7-8----|x2     
|---------0--------|---------3--------|--------0---------|--------3-------|--------5--6-5-6----| then with words

g2(|---7---7---7---7---7-7---7--7--7---|-----------------------|) 5     
|---------2--------|---------5--------|--------2---------|--------5-------|--------7--8-7-8----|g1 
|---------2--------|---------5--------|--------2---------|--------5-------|--------7--8-7-8----|     
|---------0--------|---------3--------|--------0---------|--------3-------|--------5--6-5-6----|
  You found me broken in a place called misery you found me full of hatred  yet empty  
             with all the trophies of the path I chose, hung around my neck like shackles
Riff c
g3(--2---3---2---3--2--3--|) played on the fifth string
g2(|---7---7---7---7---7-7---7--7--7---|-----------------------|) played on the fifth string
     
|---------2--------|---------5--------|--------2---------|--------5-------|--------7--8-7-8----|g1 
|---------2--------|---------5--------|--------2---------|--------5-------|--------7--8-7-8----|x1     
|---------0--------|---------3--------|--------0---------|--------3-------|--------5--6-5-6----|

now with words
g3(--2---3---2---3--2--3--|) 5
g2(|---7---7---7---7---7-7---7--7--7---|-----------------------|) 5
     
|---------2--------|---------5--------|--------2---------|--------5-------|--------7--8-7-8----|g1 
|---------2--------|---------5--------|--------2---------|--------5-------|--------7--8-7-8----|     
|---------0--------|---------3--------|--------0---------|--------3-------|--------5--6-5-6----|
Tough my blood fermented by this balckened heart. Your hand stretched out to me 
asking nothing



 Riff d

  (|-2--2--2--3-3--3--2--2--2--3-3--3--2--2--3--3--|--------------------riff c--------------|)4
g2(|-2--2--2--3-3--3--2--2--2--3-3--3--2--2--3--3--|----------------------------------------|)5
  (|-0--0--0--1-1--1--0--0--0--1-1--1--0--0--1--1--|----------------------------------------|)6
     
|---------2--------|---------5--------|--------2---------|--------5-------|--------7--8-7-8----|g1 
|---------2--------|---------5--------|--------2---------|--------5-------|--------7--8-7-8----|x2     
|---------0--------|---------3--------|--------0---------|--------3-------|--------5--6-5-6----|
You healed my sickness You cured my disease You brought redemption You brought 
release

Riff e
|---------------------------------------------------------------------------------------|
|-------------g 1,2---------------------------------------------------------------------|
|---------------------------------------------------------------------------------------|
|---2--2--2---3-3--3---2--2--2---3-3--3---2--2--3--3--|---------------------------------|
|---2--2--2---3-3--3---2--2--2---3-3--3---2--2--3--3--|---------------------------------|x4
|---0--0--0---1-1--1---0--0--0---1-1--1---0--0--1--1--|---------------------------------|


g3   (|----7-------hold four measures-----------------|)fifth string    
        
|---9---9-9---------------|----9----9-9-9----10-10-10-10-----------------|g1,2 
|---7---7-7----5---555----|----7----7-7-7-----8--8--8--8-----------------| x8        
|---0---------------------|---------------------------------------------|
                                                                   on this  
chord g2 only plays 10 
On the fourth and eighth time stop on the first 8-10 power chord

After the eighth time hold this note forever until the drums come in and then 
some
|---------------------------------------------------------------------------------------------------------|
|---------------------------------------------------------------------------------------------------------|
|---------------------------------------------------------------------------------------------------------|
|------------------------------------------------2--------------------------------------------------------|
|------------------------------------------------2--------------------------------------------------------| 
|------------------------------------------------0--------------------------------------------------------|

Now riff c again

g3(--2---3---2---3--2--3--|) 5
g2(|---7---7---7---7---7-7---7--7--7---|-----------------------|) 5
     
|---------2--------|---------5--------|--------2---------|--------5-------|--------7--8-7-8----|g1 
|---------2--------|---------5--------|--------2---------|--------5-------|--------7--8-7-8----|x1     
|---------0--------|---------3--------|--------0---------|--------3-------|--------5--6-5-6----|

g3(--2---3---2---3--2--3--|) 5
g2(|---7---7---7---7---7-7---7--7--7---|-----------------------|) 5
     
|---------2--------|---------5--------|--------2---------|--------5-------|--------7--8-7-8----|g1 
|---------2--------|---------5--------|--------2---------|--------5-------|--------7--8-7-8----|     
|---------0--------|---------3--------|--------0---------|--------3-------|--------5--6-5-6----|
You know where I came from,  You know what I'd be, if You hadn't saved me sacred 
broken tree


Riff d

  (|-2--2--2--3-3--3--2--2--2--3-3--3--2--2--3--3--|--------------------riff c--------------|)4
g2(|-2--2--2--3-3--3--2--2--2--3-3--3--2--2--3--3--|----------------------------------------|)5
  (|-0--0--0--1-1--1--0--0--0--1-1--1--0--0--1--1--|----------------------------------------|)6
     
|---------2--------|---------5--------|--------2---------|--------5-------|--------7--8-7-8----|g1 
|---------2--------|---------5--------|--------2---------|--------5-------|--------7--8-7-8----|     
|---------0--------|---------3--------|--------0---------|--------3-------|--------5--6-5-6----|
Deserving of nothing,  guilty of all,  You gave everything,  You didn't let me 
fall.

Riff e
       
|--------------------------------------------------------------|----------------------------------|       
|--------------------------------------------------------------|----------------------------------|      
|--------------------------------------------------------------|----------------------------------|       
|---2--2--2---3-3--3---2--2--2---3-3--3---2--2--3--3--|---------------------------------|g1,2
|---2--2--2---3-3--3---2--2--2---3-3--3---2--2--3--3--|---------------------------------|x4       
|---0--0--0---1-1--1---0--0--0---1-1--1---0--0--1--1--|---------------------------------|

riff a
|--This time only stop on the 8-10 power chord the fourth time---| 
|-----g 1,2----------------------------g2 plays only 10----------|
|----------------------------------------------------------------|
|---9---9-9-------------|----9----9-9-9----10-10-10-10-----------|
|---7---7-7----5---555--|----7----7-7-7-----8--8--8--8-----------| x4
|---0-------------------|----------------------------------------|
 And though I don't understand You
why You value me                                                                      
I'm forever grateful for 
Your mercy
|----------------------------------------------------------------------|
|-----g 1,2----------------------------g2 plays only 10----------------|
|----------------------------------------------------------------------|
|---9---9-9-------------|----9----9-9-9----10-10-10-10-----------------|
|---7---7-7----5---555--|----7----7-7-7-----8--8--8--8-----------------| x4
|---0-------------------|----------------------------------------------|
 And though I thought the pain,
the pain would never cease,
You brought redemption,
You brought release.
|---------------------------------------------------------------------------------------|
|---------------------------------------------------------------------------------------|
|---------------------------------------------------------------------------------------|
|------------------------------------------2--------------------------------------------|
|------------------------------------------2--------------------------------------------|
|------------------------------------------0--------------------------------------------|

This song has very touching lyrics and the music aint so bad either. 
God is good. 
Of course, whenever you see a 5,7,or8 on the fifth string, this can be replaced 
by 10,12, and13 on the sixth respectively. Just use the same power chord 
fingerings.
Again feel free to e-mail me with comments or corrections     
[conorlarkin@hotmail.com]
God Bless Acts 2:15

James Donnelly     
Добавлено: 27.06.2013
Другие материалы по этой песне:
  • Аккорды и текст

Страница создана 27.06.2013
http://primanota.ru/six-feet-deep/release-chords.htm
Привет, Гость.
Предлагаем пройти революционный курс по гитаре.
Подарок от PrimaNota.Ru, забирай!