PrimaNota.ru - самый крупный в мире бесплатный архив песенных текстов, аккордов, табулатур и нот


Six Feet Deep - Regret - таба, видео

Регистрация Запомнить меня
Войти через:  Facebook Google Twitter Vk Yandex Mail.ru

Six Feet Deep - Regret - таба, видео

Печатать
Просмотров: 81
		   Regret
Six Feet Deep
1994 SONIC CHAOS/ASCAP
R.E.X. Music

Cool song. I was going to perform this at a concert at my church, but that 
didn't work out. Oh well.  
Drop your guitar a long way down to C sharp. Thank God you didn't tab this on an 
accoustic like I did.


riff a
|-------------------------|------------------------|----------------------------------|
|-------------------------|------------------------|----------------------------------|
|-------------------------|------------------------|----------------------------------|
|-----2----2-2-2---4-5--2-|--2----2-2-2---4-5-5-4--|-2-----2-2-2--4-5--4--------------|
|-----2----2-2-2---2-3--2-|--2----2-2-2---2-3-3-2--|-2-----2-2-2--2-3--2--------------|
|-----0----0-0-0----------|--0----0-0-0------------|-0-----0-0-0----------------------|
             
|---------------------------------|--------------------------------------------------------------|
|---------------------------------|--------------------------------------------------------------|
|---------------------------------|--------------------------------------------------------------| x3
|-----2------2-2-2----4-5-7-5-----|--------------------------------------------------------------|   
|-----2------2-2-2----2-3-5-3-----|--------------------------------------------------------------|
|-----0------0-0-0----------------|--------------------------------------------------------------|
            



riff b
|--------------------------------|------------------------------|-----------------------|
|--------------------------------|------------------------------|-----------------------|
|--------------------------------|------------------------------|-----------------------|
|------2------2-2-2---2----2-2-2-|-----2----2-2-2---2-3-3-2-----|------2------2-2-2---2-|
|------2------2-2-2---2----2-2-2-|-----2----2-2-2---2-3-3-2-----|------2------2-2-2---2-|
|------0------0-0-0---0----0-0-0-|-----0----0-0-0---0-1-1-0-----|------0------0-0-0---0-|

|-------------------------|------------------|--------------------------------------------|
|-------------------------|------------------|-----2nd time only--------------------------|
|-------------------------|------------------|--------------------------------------------|
|-----2-2-2---2----2-2-2--|----2-3-5-3-------|----3------3-5----2-------------------------| x2
|-----2-2-2---2----2-2-2--|----2-3-5-3-------|----3------3-5----2-------------------------|  
|-----0-0-0---0----0-0-0--|----0-1-3-1-------|----1------1-3----0-------------------------|

riff c
|--------------------|--------------------------|--------------------------|-------------------|
|--------------------|--------------------------|--------------------------|-------------------|
|--------------------|--------------------------|--------------------------|-------------------|
|---2---------3------|------2-2--------3--------|---------2-2----------3---|--2-2---3---3-5----|
|---2---------3------|------2-2--------3--------|---------2-2----------3---|--2-2---3---3-5----|
|---0---------1------|------0-0--------1--------|---------0-0----------1---|--0-0---1---1-3----|
                   Fallen on my face, not the first time. Knowledge cry, things 
gone wrong

|--------------------|--------------------------|--------------------------|--------------------|
|--------------------|--------------------------|--------------------------|--------------------|
|--------------------|--------------------------|--------------------------|--------------------|
|---2---------3------|------2-2--------3--------|---------2-2----------3---|--2-2------3--------|
|---2---------3------|------2-2--------3--------|---------2-2----------3---|--2-2------3--------|
|---0---------1------|------0-0--------1--------|---------0-0----------1---|--0-0------1--------|
             I played the master, I played the fool. How far down is down? 
Nearsighted.


Now play riff b again
|--------------------------------|------------------------------|-----------------------|
|--------------------------------|------------------------------|-----------------------|
|--------------------------------|------------------------------|-----------------------|
|------2------2-2-2---2----2-2-2-|-----2----2-2-2---2-3-3-2-----|------2------2-2-2---2-|
|------2------2-2-2---2----2-2-2-|-----2----2-2-2---2-3-3-2-----|------2------2-2-2---2-|
|------0------0-0-0---0----0-0-0-|-----0----0-0-0---0-1-1-0-----|------0------0-0-0---0-|

|---------------------------|------------------|------------------------------------------------|
|---------------------------|------------------|------------------------------------------------|
|---------------------------|------------------|------------------------------------------------|
|------2-2-2---2----2-2-2---|----2-3-5-3-------|------------------------------------------------| 
|------2-2-2---2----2-2-2---|----2-3-5-3-------|------------------------------------------------|
|------0-0-0---0----0-0-0---|----0-1-3-1-------|------------------------------------------------|

This brings you back to another verse.
riff c
|--------------------|--------------------------|--------------------------|-------------------|
|--------------------|--------------------------|--------------------------|-------------------|
|--------------------|--------------------------|--------------------------|-------------------|
|---2---------3------|------2-2--------3--------|---------2-2----------3---|--2-2---3---3-5----|
|---2---------3------|------2-2--------3--------|---------2-2----------3---|--2-2---3---3-5----|
|---0---------1------|------0-0--------1--------|---------0-0----------1---|--0-0---1---1-3----|
                   There I        lie,             brusied and beaten.     Used 
and bleeding.Regret

|--------------------|--------------------------|--------------------------|--------------------|
|--------------------|--------------------------|--------------------------|--------------------|
|--------------------|--------------------------|--------------------------|--------------------|
|---2---------3------|------2-2--------3--------|---------2-2----------3---|--2-2------3--------|
|---2---------3------|------2-2--------3--------|---------2-2----------3---|--2-2------3--------|
|---0---------1------|------0-0--------1--------|---------0-0----------1---|--0-0------1--------|
         To trust is faith,      my faith ran sour.    Is this my hour when 
darkness reigns?

And now riff a (the chorus) again, but this time with words.
|-------------------------|------------------------|-----------------------------------|
|-------------------------|------------------------|-----------------------------------|
|-------------------------|------------------------|-----------------------------------|
|-----2----2-2-2---4-5--2-|--2----2-2-2---4-5-5-4--|-2-----2-2-2--4-5--4---------------|
|-----2----2-2-2---2-3--2-|--2----2-2-2---2-3-3-2--|-2-----2-2-2--2-3--2---------------|
|-----0----0-0-0----------|--0----0-0-0------------|-0-----0-0-0-----------------------|
                 Looking back,                          hindsight 20/20.                      
life so lost       
                        Now complete                       faith tuned so sweet   
will of my Lord

|---------------------------------|--------------------------------------------------------|
|---------------------------------|--------------------------------------------------------|
|---------------------------------|----------------(Guitar 2)------------------------------|
|-----2------2-2-2----4-5-7-5-----|--------------------------------------------------------|   
|-----2------2-2-2----2-3-5-3-----|------11--11--11--11--11---11---------------------------|
|-----0------0-0-0----------------|--------------------------------------------------------|
              Life so dark and empty                                   
(second time guitar 1  holds the open power chord)            
                          best for
riff d
|--------------------------------------------|---------------------------------------|
|--------------------------------------------|---------------------------------------|
|--------------------------------------------|---------------------------------------|  
|--2----2-2---2---2-2---2-2---2-----3-3-3-3--|--2----2-2---2--2---3--3-3-3---5-5-5-5-|  x4
|--2----2-2---2---2-2---2-2---2-----3-3-3-3--|--2----2-2---2--2---3--3-3-3---5-5-5-5-|
|--0----0-0---0---0-0---0-0---0-----1-1-1-1--|--0----0-0---0--0---1--1-1-1---3-3-3-3-|                                                            
          me                                                                               
(fourth time)  But I 

riff e
|--------------|--------------------|----------------------------|-------------------------|
|--------------|--------------------|----------------------------|-------------------------|
|--------------|--------------------|----------------------------|-------------------------|
|--2---2----2--|--2---2----3----5---|-2----2----2----2----3--3-3-|-2---2--3--3--5--5-5-----|
|--2---2----2--|--2---2----3----5---|-2----2----2----2----3--3-3-|-2---2--3--3--5--5-5-----|
|--0---0----0--|--0---0----1----3---|-0----0----0----0----1--1-1-|-0---0--1--1--3--3-3-----|
   Can't forget,      where I've been     things I've done like 
concrete,encasing my feet

|---------------------------|---------------------|--------------------------------|
|---------------------------|---------------------|--------------------------------|
|---------------------------|---------------------|--------------------------------|
|-2----2----2----2---3--3-3-|-2---2--3--3--5--5-5-|-2----2----2----2---3---3-3-----|
|-2----2----2----2---3--3-3-|-2---2--3--3--5--5-5-|-2----2----2----2---3---3-3-----|
|-0----0----0----0---1--1-1-|-0---0--1--1--3--3-3-|-0----0----0----0---1---1-1-----|
Pulling me so deep      the guilt it won't let me sleep but I know sorrow brings 
death

|---------------------------------|--------------------------------|
|---------------------------------|--------------------------------|
|---------------------------------|--------------------------------|
|-2----2---3---3---5---5-5--------|---2----2----2----2---3---3-3---|
|-2----2---3---3---5---5-5--------|---2----2----2----2---3---3-3---|
|-0----0---1---1---3---3-3--------|---0----0----0----0---1---1-1---|
If I can't stand before God and confess His grace will not relent  

|----------------------------|
|----------------------------|
|----------------------------|
|---2----2---3---3---5---5-5-|
|---2----2---3---3---5---5-5-|
|---0----0---1---1---3---3-3-|
salvation leaves no regret

Now riff d with words
|--------------------------------------------|---------------------------------------|
|--------------------------------------------|---------------------------------------|
|--------------------------------------------|---------------------------------------|  
|--2----2-2---2---2-2---2-2---2-----3-3-3-3--|--2----2-2---2--2---3--3-3-3---5-5-5-5-|  
|--2----2-2---2---2-2---2-2---2-----3-3-3-3--|--2----2-2---2--2---3--3-3-3---5-5-5-5-|
|--0----0-0---0---0-0---0-0---0-----1-1-1-1--|--0----0-0---0--0---1--1-1-1---3-3-3-3-|   
          The emtiness                                             The 
loneliness
           The stagnant pain                                                    
Unending rain
           Now complete                                                          
Now I'm clean
           Now redeemed                                                       
All I need                                           
                                                No Regret                                                     
No Regret  



And then the chorus again (riff a)

|-------------------------|------------------------|----------------------------------|
|-------------------------|------------------------|----------------------------------|
|-------------------------|------------------------|----------------------------------|
|-----2----2-2-2---4-5--2-|--2----2-2-2---4-5-5-4--|-2-----2-2-2--4-5--4--------------|
|-----2----2-2-2---2-3--2-|--2----2-2-2---2-3-3-2--|-2-----2-2-2--2-3--2--------------|
|-----0----0-0-0----------|--0----0-0-0------------|-0-----0-0-0----------------------|
                 Looking back,                          hindsight 20/20.                      
life so lost       
                        Now complete                       faith tuned so sweet   
will of my Lord



|---------------------------------|-------------------------------------------------------------|
|---------------------------------|-------------------------------------------------------------|
|---------------------------------|-------------------------------------------------------------|
|-----2------2-2-2----4-5-7-5-----|---------------2---2----2------------------------------------|   
|-----2------2-2-2----2-3-5-3-----|---------------2---2----2------------------------------------|
|-----0------0-0-0----------------|---------------0---0----0------------------------------------|
              Life so dark and empty                                   No 
regret!
               Best for me

And there she is.  On riff a you can substitute 7,8,and 10 in place of 2,3,and 5 
respectively. I usually play it all on the sixth string anyway but it is easier 
to tab using the smaller numbers.
It's a really cool song considering there are only seven different notes. Oh 
well.
E-mail me if you have comments or corrections.  [conorlarkin@hotmail.com]
God Bless. John 11:35     
Добавлено: 15.08.2013
Другие материалы по этой песне:
  • Аккорды и текст

Страница создана 15.08.2013
http://primanota.ru/six-feet-deep/regret-chords.htm
Привет, Гость.
Предлагаем пройти революционный курс по гитаре.
Подарок от PrimaNota.Ru, забирай!