PrimaNota.ru - самый крупный в мире бесплатный архив песенных текстов, аккордов, табулатур и нот


Six Feet Deep - Narrow - таба, видео

Регистрация Запомнить меня
Войти через:  Facebook Google Twitter Vk Yandex Mail.ru

Six Feet Deep - Narrow - таба, видео

Печатать
Просмотров: 76
		   Author/Artist: Six Feet Deep
Title: Narrow
Album: The Road Less Traveled
Transcribed by: skaguy
Email: skaguy@juno.com

Summer vacation's here!  YEHAAAA! I thought I'd take a few minutes and
attempt to transcribe this very cool song. Any suggestions or
improvements are welcome!
Enjoy!

------------------------------------------------------------------------------
------------------------------------------------------------------------------
------------------------------------------------------------------------------
------------------------------------------------------------------------------
-6-8-9---8-9-8---6-9---8-9-8--------------------------------------------------
-------9-------7-----9--------------------------------------------------------
 Guitar One (Clean) plays above repeatedly for most of the song          
    

------------------------------------------------------------------------------
------------------------------------------------------------------------------
------------------------------------------------------------------------------
------------------------------------------------------------------------------
-6-4-2-4----------------------------------------------------------------------
------------------------------------------------------------------------------
 Guitar Two (Slightly fuzzed) comes in at 0:18 playing above (Play x4)   
    

------------------------------------------------------------------------------
------------------------------------------------------------------------------
------------------------------------------------------------------------------
------------------------------------------------------------------------------
-6666-88888888-66666-4444444-66666-8888-11-11-11-11-9999----------------------
------------------------------------------------------------------------------
 Guitar Two (Slightly fuzzed) plays above starting at 0:36 (Play x2)     
   

------------------------------------------------------------------------------
------------------------------------------------------------------------------
------------------------------------------------------------------------------
------------------------------------------------------------------------------
---7-7-7--9-9-9---------------------------------------------------------------
---5-5-5--7-7-7---------------------------------------------------------------
  Guitar One pauses at 0:54/Guitar Two plays above (Play many times)     
    

------------------------------------------------------------------------------
------------------------------------------------------------------------------
------------------------------------------------------------------------------
------------------------------------------------------------------------------
-8-9-11-10-9-8----------------------------------------------------------------
------------------------------------------------------------------------------
  Guitar 2 plays something like this once in a while (barely audible)    
    
  E-mail me if you can improve this part!!

------------------------------------------------------------------------------
------------------------------------------------------------------------------
------------------------------------------------------------------------------
------------------------------------------------------------------------------
---7-7-h8-7-6-4-6-------------------------------------------------------------
------------------------------------------------------------------------------
  Guitar One plays this ending riff                  

Jam for the Lamb!!!
-skaguy                         
     
Добавлено: 08.10.2013
Другие материалы по этой песне:
  • Аккорды и текст

Страница создана 08.10.2013
http://primanota.ru/six-feet-deep/narrow-chords.htm
Привет, Гость.
Предлагаем пройти революционный курс по гитаре.
Подарок от PrimaNota.Ru, забирай!