PrimaNota.ru - самый крупный в мире бесплатный архив песенных текстов, аккордов, табулатур и нот


Six Feet Deep - Broken Tree - таба, видео

Регистрация Запомнить меня
Войти через:  Facebook Google Twitter Vk Yandex Mail.ru

Six Feet Deep - Broken Tree - таба, видео

Печатать
Просмотров: 72
		   Artist: sixfeetdeep
Album: The road less traveled
Song: Broken tree
Tabbed by: Rocky gunderson

Well I haven't mastered the song yet, but I have the main 
idea of the song, so I will tab what I have and I will keep 
workin on it. Any questions write me at
unpopular@angelfire.com



Intro: Played with a flanger type distortion.

Intro: Played in this order

E [-6-----2-----6-----2-----]
B [-6-----2-----6-----2-----]
G [-6-----4-----8-----4-----]
D [-8-----4-----8-----4-----]
A [-8-----2-----6-----2-----]
E [-6-----2-----6-----2-----]

Play these chords with an up and down type strum.
Play it with the song to get the timing.


Guitar part: Play after intro is played three times. Play with distortion

#+s=slide

e-------------------------------------------------------------------]
B-------------------------------------------------------------------]
G-------------------------------------------------------------------]
D-------------------------------------------------------------------]
A-6-6-6-6-6-6-6s-9-9-9-9-9-9-9s-8-8-8-8s-6-6-6-6s-4-4s-2-2-2-2s-4s-6]
E-------------------------------------------------------------------]

This part ^above is played once after the 
intro and again later in the song.This part 
is almost exactly perfect to the song. 

The rest of the song are the chords from the intro, 
but played with distortion. There are two guitars in the song.
 I will put the rest of the song 
up when I figure it out exactly.

Write me at unpopular@angelfire.com
Visit my band UNPOPULAR at http://members.linkopp.com/unpopular      
Добавлено: 18.11.2013
Другие материалы по этой песне:
  • Аккорды и текст

Страница создана 18.11.2013
http://primanota.ru/six-feet-deep/broken-tree-chords.htm
Привет, Гость.
Предлагаем пройти революционный курс по гитаре.
Подарок от PrimaNota.Ru, забирай!