PrimaNota.ru - самый крупный в мире бесплатный архив песенных текстов, аккордов, табулатур и нот


Six Feet Deep - Angry Son - таба, видео

Регистрация Запомнить меня
Войти через:  Facebook Google Twitter Vk Yandex Mail.ru

Six Feet Deep - Angry Son - таба, видео

Печатать
Просмотров: 103
Уроки эстрадного вокала в Санкт-Петербурге
		   Song: Angry Son
  Artist: Six feet deep
  Album: Struggle (c) 1994 SONIC CHAOS/ASCAP
  Tabbed by : John Martindale (pilgrims@ktc.com)
 
  Tune the guitar 1 1/2 steps down to a C# tuning.
 
   riff 1:   Intro/Verse     Listen to the CD to get the rhythm
   C#-------------------------------------|    |-----|
   G#---------6--5-6---------6--5---------|    |-----|
   E ---------5--4-5---------5--4-0-------|    |-----|
   B ---2-2---3--2-3---2-2---3--2-2-------|then|--2--|
   F#---2-2---3--2-3---2-2---3--2-2-------|    |--2--|
   C#---0-0------------0-0----------------|    |--0--|
                                               just in intro
 Verse:
 Born into a world I knew nothing of
 No concept of pain, I didn't know what it was.
 But I was young, innocent, and so naive,
 and I soon found out how it is.
 
 riff 1, but difrent rhythm
 Born into a world I knew nothing of
 No concept of pain, I didn't know what it was.
 I thought I could trust, I thought I could lean
 on this world, but I soon found out what it means...

  fill           let ring
  |-----------------------|
  |-----------------------|
  |-----------------------|
  |---2-------------------|
  |---2-------------------|
  |---0-------2-2--0------|
 
  ------------------------------------
  ------------------------------------
  ------------------------------------
  -2-2-2-5---2-2-2-2--5---2-----------
  -2-2-2-5---2-2-2-2--5---2-----------
  -0-0-0-3---0-0-0-0--3---0-----------
  ...to fall face to the ground.
  ------------------------------------
  ------------------------------------
  ------------------------------------
  -2-2-2-2----5-------2----2----2-----
  -2-2-2-2----5-------2----2----2-----
  -0-0-0-0----3-------0----0----0-----
  Try to get back up, pushed back down
  ------------------------------------
  ------------------------------------
  ------------------------------------
  ---2-2-2----5------2-2-2-2---5--2---
  ---2-2-2----5------2-2-2-2---5--2---
  ---0-0-0----3------0-0-0-0---3--0---
  Out streched hand, broken wrist.
  ------------------------------------
  ------------------------------------
  ------------------------------------
  -2-2----5----2--2--2---5--2---------
  -2-2----5----2--2--2---5--2---------
  -0-0----3----0--0--0---3--0---------
  One more name on my blacklist.
  ------------------------------------
  ------------------------------------
  ------------------------------------
  -2-2-2---5-----2-2-2-2---5--2-------
  -2-2-2---5-----2-2-2-2---5--2-------
  -0-0-0---3-----0-0-0-0---3--0-------
  Didn't take me long to learn,
  ------------------------------------
  ------------------------------------
  ------------------------------------
  -2-2-2-----5-2--------2---2---2-----
  -2-2-2-----5-2--------2---2---2-----
  -0-0-0-----3-0--------0---0---0-----
  That if you trust, you get burned.
  ------------------------------------
  ------------------------------------
  ------------------------------------
  -2-2-2--5---2-2-2-2--5-2---2-2-2-2-2
  -2-2-2--5---2-2-2-2--5-2---2-2-2-2-2
  -0-0-0--3---0-0-0-0--3-0---0-0-0-0-0
  Put a name to my pain.....life.
  ------------------------------------
  ------------------------------------
  ------------------------------------
  --5--------------------4------------
  --5--------------------4------------
  --3--------------------1------------
  Attempt after attempt, can my heart,
  ------------------------------------
  ------------------------------------
  ------------------------------------
  -----------------2-2-2-2-2-2--------
  -----------------2-2-2-2-2-2--------
  -----------------0-0-0-0-0-0--------
  Ever be free of contempt?
 
  riff 2:
  ------------------------------------|--------------------------------|
  ------------------------------------|--------------------------------|
  ------------------------------------|--------------------------------|
  --2---2-2---10\-9\--7\--5------3x---|--7---7-7--10\-9\--7\-5/-9------|
  --2---2-2---10\-9\--7\--5-----------|--7---7-7--10\-9\--7\-5/-9------|
  --0---0-0---8-\-7\--5\--3-----------|--5---5-5--8-\-7\--5\-3/-7------|
 
 riff 2
 The scars in this flesh chronicle my life best,
 Eternal memories of why I've come to this.
 The thorn in my side, the knife stuck into my spine,
 Never again to trust anyone.
 Father heal your angry son.

  fill
  ---------------------------------------------------
  ---------------------------------------------------
  ---------------------------------------------------
  --2-2---5-2--2-2---5-2--2-2--5-2--3----3-3---------
  --2-2---5-2--2-2---5-2--2-2--5-2--3----3-3---------
  --0-0---3-0--0-0---3-0--0-0--3-0--1----1-1---------

  ---------------------------------------------------
  ---------------------------------------------------
  --------------------------------------------------- 2X
  --2-2---5-2--2-2---5-2---2-2---5-2-3-3-3-3-3-3--7--
  --2-2---5-2--2-2---5-2---2-2---5-2-3-3-3-3-3-3--7--
  --0-0---3-0--0-0---3-0---0-0---3-0-1-1-1-1-1-1--5--

 riff 2
 The portrait of hate, I stare myself in the face.
 Mirror haunts, my first bleeding, broken glass.
 It twists, it writhes, it sinks its teeth into my mind
 Bending me against everyone.
 Father heal your angry son.
 
 riff 3:
  --------------------------------------
  --------------------------------------
  --------------------------------------
  --2----2----5\--4--2-3----------------
  --2----2----5\--4--2-3----------------
  --0----0----3\--2--0-1----------------

 riff 3
 Please, set me free, I'm becoming the epitome Of what I oppose.
 Father take the pain. Blood of Your
 Only Begotten paid ransom of my suffering.
 To Your cross this albatross I bring.

 fill
  -------------------------------------
  -------------------------------------
  -------------------------------------
  --7-----5----3-3-3-3-----------------
  --7-----5----3-3-3-3-----------------
  --5-----3----1-1-1-1-----------------

 riff 3
 Templet life led long ago,
 Son of God cleanse my soul.
 This hardened heart turned to clay.
 Father, heal your angry son.

 fill
  ----------------------------------------
  ----------------------------------------
  ----------------------------------------
  --7-----5----4-4-4-4 --4----------------
  --7-----5----4-4-4-4---4----------------
  --5-----3----2-2-2-2---2----------------
     
Добавлено: 24.06.2013
Другие материалы по этой песне:
  • Аккорды и текст

Страница создана 24.06.2013
http://primanota.ru/six-feet-deep/angry-son-chords.htm
Привет, Гость.
Предлагаем пройти революционный курс по гитаре.
Подарок от PrimaNota.Ru, забирай!