PrimaNota.ru - самый крупный в мире бесплатный архив песенных текстов, аккордов, табулатур и нот


Six Bearded Fish - Take Me To Your Dealer - таба, видео

Регистрация Запомнить меня
Войти через:  Facebook Google Twitter Vk Yandex Mail.ru

Six Bearded Fish - Take Me To Your Dealer - таба, видео

Печатать
Просмотров: 61
This has both the guitar and bass parts. Please note that Aidan slaps during 
the chorus. I could not tab out the solo!!!! This English band is quite 
brilliant and should be in the USA soon (hopefully!!!)

Transcribed by juan_king@hotmail.com

TAKE ME TO YOUR DEALER
As recorded by Six Bearded Fish
(From the 2001 Album OSTEICHTHYES)


      Words by Tim Slater Music by Aidan Hampson, Rob Hampson, Tim Slater, Paul 
      Thomas.




 Intro
  Q=132
 4/4
  Gtr I
   
|----------|--------|
|----------|--------|
|-9--------|-(9)----|
|-x--------|--------|
|-7--------|-(7)----|
|-0--------|-(0)----|
|
| Gtr II
|  
|-9--------|-(9)----|
|----------|--------|
|-7--------|-(7)----|
|-0--------|-(0)----|
|----------|--------|


   4/4
                                                                       4x
||----------------------------------|----------------------------------||
||o---------------------------------|---------------------------------o||
||----------------------------------|----------------------------------||
||--------------------------5h7p5---|-------------------------5h7p5----||
||o-5h7-7-5h7-5h7-(7)-5h7-7-------7-|-5h7-7-5h7-5h7-(7)-5h7-7-------7-o||
||--0-----0---0-------0-------------|-0-----0---0-------0--------------||
|
|                                                                      4x
||----------------------------------|----------------------------------||
||o-------------------------5h7p5---|-------------------------5h7p5---o||
||--5h7-7-5-7-5-7-(7)-5-7-7-------7-|-5h7-7-5-7-5-7-(7)-5-7-7-------7--||
||o---------------------------------|---------------------------------o||
||----------------------------------|----------------------------------||


   Verse 1
                                                                        4x
||----------------------------------|-----------------------------------||
||o---------------------------------|----------------------------------o||
||----------------------------------|-----------------------------------||
||--------------------------5h7p5---|-------------------------5h7p5-----||
||o-5h7-7-5h7-5h7-(7)-5h7-7-------7-|-5h7-7-5h7-5h7-(7)-5h7-7-------7--o||
||--0-----0---0-------0-------------|-0-----0---0-------0---------------||
|
|                                                                       4x
||----------------------------------|-----------------------------------||
||o-------------------------5h7p5---|-------------------------5h7p5----o||
||--5h7-7-5-7-5-7-(7)-5-7-7-------7-|-5h7-7-5-7-5-7-(7)-5-7-7-------7---||
||o---------------------------------|----------------------------------o||
||----------------------------------|-----------------------------------||


  D5
  Gtr IV
   |
   /

|---------------------------------------------------|
|---------------------------------------------------|
|-14-14-14-14-14--14-14-14-14--14-14-14-14-14-14-14-|
|--x--x--x--x--x---x--x--x--x---x--x--x--x--x--x--x-|
|-12-12-12-12-12--12-12-12-12--12-12-12-12-12-12-12-|
|---------------------------------------------------|
|
|---------------------------------------------------|
|----------------------------------------3-----5----|
|--3h=5--5--5-(5)-----3--5-(5)--3--5----------------|
|---------------------------------------------------|
|---------------------------------------------------|


  C5                                    F5
   |                                     |
   /                                     /

|---------------------------------------------|
|---------------------------------------------|
|-12-12-12-12-12--12-12-12-12--12-12-12-14\---|
|--x--x--x--x--x---x--x--x--x---x--x--x--x----|
|-10-10-10-10-10--10-10-10-10--10-10-10-12\---|
|---------------------------------------------|
|
|---------------------------------------------|
|----------------------------------------3--3-|
|--1h=3--3--3-(3)-----1--3-(3)--1--3----------|
|---------------------------------------------|
|---------------------------------------------|


||----------------------------------|-----------------------------------||
||o---------------------------------|----------------------------------o||
||----------------------------------|-----------------------------------||
||--------------------------5h7p5---|-------------------------5h7p5-----||
||o-5h7-7-5h7-5h7-(7)-5h7-7-------7-|-5h7-7-5h7-5h7-(7)-5h7-7-------7--o||
||--0-----0---0-------0-------------|-0-----0---0-------0---------------||
|
||----------------------------------|-----------------------------------||
||o-------------------------5h7p5---|-------------------------5h7p5----o||
||--5h7-7-5-7-5-7-(7)-5-7-7-------7-|-5h7-7-5-7-5-7-(7)-5-7-7-------7---||
||o---------------------------------|----------------------------------o||
||----------------------------------|-----------------------------------||


   Verse 2&3
    $
                                                                        4x
||----------------------------------|-----------------------------------||
||o---------------------------------|----------------------------------o||
||----------------------------------|-----------------------------------||
||--------------------------5h7p5---|-------------------------5h7p5-----||
||o-5h7-7-5h7-5h7-(7)-5h7-7-------7-|-5h7-7-5h7-5h7-(7)-5h7-7-------7--o||
||--0-----0---0-------0-------------|-0-----0---0-------0---------------||
|
|                                                                       4x
||----------------------------------|-----------------------------------||
||o-------------------------5h7p5---|-------------------------5h7p5----o||
||--5h7-7-5-7-5-7-(7)-5-7-7-------7-|-5h7-7-5-7-5-7-(7)-5-7-7-------7---||
||o---------------------------------|----------------------------------o||
||----------------------------------|-----------------------------------||


  D5
  Gtr IV
   |
   /

|---------------------------------------------------|
|---------------------------------------------------|
|-14-14-14-14-14--14-14-14-14--14-14-14-14-14-14-14-|
|--x--x--x--x--x---x--x--x--x---x--x--x--x--x--x--x-|
|-12-12-12-12-12--12-12-12-12--12-12-12-12-12-12-12-|
|---------------------------------------------------|
|
|---------------------------------------------------|
|----------------------------------------3-----5----|
|--3h=5--5--5-(5)-----3--5-(5)--3--5----------------|
|---------------------------------------------------|
|---------------------------------------------------|


  C5                                    F5
   |                                     |
   /                                     /

|---------------------------------------------|
|---------------------------------------------|
|-12-12-12-12-12--12-12-12-12--12-12-12-14\---|
|--x--x--x--x--x---x--x--x--x---x--x--x--x----|
|-10-10-10-10-10--10-10-10-10--10-10-10-12\---|
|---------------------------------------------|
|
|---------------------------------------------|
|----------------------------------------3--3-|
|--1h=3--3--3-(3)-----1--3-(3)--1--3----------|
|---------------------------------------------|
|---------------------------------------------|


||----------------------------------|-----------------------------------||
||o---------------------------------|----------------------------------o||
||----------------------------------|-----------------------------------||
||--------------------------5h7p5---|-------------------------5h7p5-----||
||o-5h7-7-5h7-5h7-(7)-5h7-7-------7-|-5h7-7-5h7-5h7-(7)-5h7-7-------7--o||
||--0-----0---0-------0-------------|-0-----0---0-------0---------------||
|
||----------------------------------|-----------------------------------||
||o-------------------------5h7p5---|-------------------------5h7p5----o||
||--5h7-7-5-7-5-7-(7)-5-7-7-------7-|-5h7-7-5-7-5-7-(7)-5-7-7-------7---||
||o---------------------------------|----------------------------------o||
||----------------------------------|-----------------------------------||


   Chorus
    A5
    Gtr IV
     |
     /

||---------------------------------------------------|
||o--------------------------------------------------|
||--17-17-17-17-17--17-17-17-17-17-17-17-17-17-17-17-|
||---x--x--x--x--x---x--x--x--x--x--x--x--x--x--x--x-|
||o-15-15-15-15-15--15-15-15-15-15-15-15-15-15-15-15-|
||---------------------------------------------------|
|
|   Gtr III
||---------------------------------------------------|
||o-----------7-(7)--7-----------5--------5h=7--x--7-|
||----------------------5h=7-------------------------|
||o--5-----5------------------x--------x-------------|
||---------------------------------------------------|


   |
   /

|---------------------------------------------------|
|---------------------------------------------------|
|-19-19-19-19-19--19-19-19-19-19-19-19-19-19-19-19--|
|--x--x--x--x--x---x--x--x--x--x--x--x--x--x--x--x--|
|-17-17-17-17-17--17-17-17-17-17-17-17-17-17-17-17--|
|---------------------------------------------------|
|
|---------------------------------------------------|
|-----------7-(7)--7-----------5--------5h=7--x--7--|
|---------------------5h=7--------------------------|
|--5-----5------------------x--------x--------------|
|---------------------------------------------------|


  G5
   |
   /

|--------------------------------------------------|
|--------------------------------------------------|
|-16-16-16-16-16--16-16-16-16-16-16-16-16-16-16-16-|
|--x--x--x--x--x---x--x--x--x--x--x--x--x--x--x--x-|
|-14-14-14-14-14--14-14-14-14-14-14-14-14-14-14-14-|
|--------------------------------------------------|
|
|--------------------------------------------------|
|-----------5-(5)--5-----------3--------3h=5--x--5-|
|---------------------3h=5-------------------------|
|--3-----3------------------x--------x-------------|
|--------------------------------------------------|


  1.,2.,3.
   |
   /

                                                    4x
|---------------------------------------------------||
|--------------------------------------------------o||
|-12-12-12-12-12--12-12-12-14-14-14-14-14-14-14-14--||
|--x--x--x--x--x---x--x--x--x--x--x--x--x--x--x--x--||
|-10-10-10-10-10--10-10-10-12-12-12-12-12-12-12-12-o||
|---------------------------------------------------||
|
|                                                   4x
|---------------------------------------------------||
|-----------5-(5)--5-----------3--------3h=5--x--5-o||
|---------------------3h=5--------------------------||
|--3-----3------------------x--------x-------------o||
|---------------------------------------------------||


  4.
                                             To Coda
  G5                 F#5                F5I
   |                  |                  |
   /                  /                  /

|----------------------------------------------------||
|----------------------------------------------------||
|-12-12-12-12-12--12-14-14-14-14-14--14-17-17-17-17--||
|--x--x--x--x--x---x--x--x--x--x--x---x--x--x--x--x--||
|-10-10-10-10-10--10-12-12-12-12-12--12-15-15-15-15--||
|----------------------------------------------------||
|
|----------------------------------------------------||
|-----------5-(5)--5-----------4-(4)--4--------3-----||
|----------------------------------------------------||
|--3-----3------------2-----2------------1--1--------||
|----------------------------------------------------||


   Pre-Verse
||-------------------------------------------------|
||o------------------------------------------------|
||-------------------------------------------------|
||--------------------------------------5h=7p=5----|
||o--5h=7--7--5h=7--5h=7--(7)--5h=7--7-----------7-|
||---0--------0-----0----------0-------------------|
|
|   Gtr II
||-------------------------------------12h14p12----|
||o-12h14-14-12-14-12-14-(14)-12-14-14----------14-|
||-------------------------------------------------|
||o------------------------------------------------|
||-------------------------------------------------|


                                     D.S. al Coda
|--------------------------------------------------||
|-------------------------------------------------o||
|--------------------------------------------------||
|-------------------------------------5h=7p=5------||
|--5h=7--7--5h=7--5h=7--(7)--5h=7--7-----------7--o||
|--0--------0-----0----------0---------------------||
|
|------------------------------------12h14p12------||
|-12h14-14-12-14-12-14-(14)-12-14-14----------14--o||
|--------------------------------------------------||
|-------------------------------------------------o||
|--------------------------------------------------||


   Interlude
    &
    (E5)
||----------------------------|----------------------------||
||o---------------------------|---------------------------o||
||----------------------------|----------------------------||
||----------------------------|----------------------------||
||o-7-7-(7)-7-----------------|-7-7-(7)-7-----------------o||
||--0-0-(0)-0-----------------|-0-0-(0)-0------------------||
|
||----------------------------|----------------------------||
||o---------------------------|---------------------------o||
||----------------2-(2)---4-5-|---------------2-(2)---5-7--||
||o-0-0-(0)-0-3-0-------0-----|-0-0-(0)-0-3-0-------0-----o||
||----------------------------|----------------------------||


  Bmaj7sus4/E
|---------------------------|-------------------------------|
|---------------------------|-------------------------------|
|-3-------------------------|-(3)---------------------------|
|-2-------------------------|-(2)---------------------------|
|-2-------------------------|-(2)---------------------------|
|-0-------------------------|-(0)---------------------------|
|
|---------------------------|-------------------------------|
|---------------------------|-------------------------------|
|---------------2-(2)---4-5-|-----------------2-(2)---5-7---|
|-0-0-(0)-0-3-0-------0-----|--0--0-(0)-0-3-0-------0-------|
|---------------------------|-------------------------------|


|-----------------------------|-----------------------------|
|-----------------------------|-----------------------------|
|-(3)-------------------------|-(3)-------------------------|
|-(2)-------------------------|-(2)-------------------------|
|-(2)-------------------------|-(2)-------------------------|
|-(0)-------------------------|-(0)-------------------------|
|
|-----------------------------|-----------------------------|
|-----------------------------|-----------------------------|
|-----------------2-(2)---4-5-|-----------------2-(2)---5-7-|
|--0--0-(0)-0-3-0-------0-----|--0--0-(0)-0-3-0-------0-----|
|-----------------------------|-----------------------------|


   Guitar Solo
                                                              8x
||----------------------------|-------------------------------||
||o---------------------------|------------------------------o||
||----------------------------|-------------------------------||
||----------------------------|-------------------------------||
||o---------------------------|------------------------------o||
||----------------------------|-------------------------------||
|
|                                                             8x
||----------------------------|-------------------------------||
||o---------------------------|------------------------------o||
||----------------2-(2)---4-5-|---------------2-(2)---5-7-----||
||o-0-0-(0)-0-3-0-------0-----|-0-0-(0)-0-3-0-------0--------o||
||----------------------------|-------------------------------||


 Half Verse
  D5
  Gtr IV
   |
   /

|---------------------------------------------------|
|---------------------------------------------------|
|-14-14-14-14-14--14-14-14-14--14-14-14-14-14-14-14-|
|--x--x--x--x--x---x--x--x--x---x--x--x--x--x--x--x-|
|-12-12-12-12-12--12-12-12-12--12-12-12-12-12-12-12-|
|---------------------------------------------------|
|
|---------------------------------------------------|
|----------------------------------------3-----5----|
|--3h=5--5--5-(5)-----3--5-(5)--3--5----------------|
|---------------------------------------------------|
|---------------------------------------------------|


  C5                                    F5
   |                                     |
   /                                     /

|---------------------------------------------||
|---------------------------------------------||
|-12-12-12-12-12--12-12-12-12--12-12-12-14\---||
|--x--x--x--x--x---x--x--x--x---x--x--x--x----||
|-10-10-10-10-10--10-10-10-10--10-10-10-12\---||
|---------------------------------------------||
|
|---------------------------------------------||
|----------------------------------------3--3-||
|--1h=3--3--3-(3)-----1--3-(3)--1--3----------||
|---------------------------------------------||
|---------------------------------------------||


||----------------------------------|-----------------------------------||
||o---------------------------------|----------------------------------o||
||----------------------------------|-----------------------------------||
||--------------------------5h7p5---|-------------------------5h7p5-----||
||o-5h7-7-5h7-5h7-(7)-5h7-7-------7-|-5h7-7-5h7-5h7-(7)-5h7-7-------7--o||
||--0-----0---0-------0-------------|-0-----0---0-------0---------------||
|
||----------------------------------|-----------------------------------||
||o-------------------------5h7p5---|-------------------------5h7p5----o||
||--5h7-7-5-7-5-7-(7)-5-7-7-------7-|-5h7-7-5-7-5-7-(7)-5-7-7-------7---||
||o---------------------------------|----------------------------------o||
||----------------------------------|-----------------------------------||


   Chorus
    A5
    Gtr IV
     |
     /

||---------------------------------------------------|
||o--------------------------------------------------|
||--17-17-17-17-17--17-17-17-17-17-17-17-17-17-17-17-|
||---x--x--x--x--x---x--x--x--x--x--x--x--x--x--x--x-|
||o-15-15-15-15-15--15-15-15-15-15-15-15-15-15-15-15-|
||---------------------------------------------------|
|
||---------------------------------------------------|
||o-----------7-(7)--7-----------5--------5h=7--x--7-|
||----------------------5h=7-------------------------|
||o--5-----5------------------x--------x-------------|
||---------------------------------------------------|


   |
   /

|---------------------------------------------------|
|---------------------------------------------------|
|-19-19-19-19-19--19-19-19-19-19-19-19-19-19-19-19--|
|--x--x--x--x--x---x--x--x--x--x--x--x--x--x--x--x--|
|-17-17-17-17-17--17-17-17-17-17-17-17-17-17-17-17--|
|---------------------------------------------------|
|
|---------------------------------------------------|
|-----------7-(7)--7-----------5--------5h=7--x--7--|
|---------------------5h=7--------------------------|
|--5-----5------------------x--------x--------------|
|---------------------------------------------------|


  G5
   |
   /

|--------------------------------------------------|
|--------------------------------------------------|
|-16-16-16-16-16--16-16-16-16-16-16-16-16-16-16-16-|
|--x--x--x--x--x---x--x--x--x--x--x--x--x--x--x--x-|
|-14-14-14-14-14--14-14-14-14-14-14-14-14-14-14-14-|
|--------------------------------------------------|
|
|--------------------------------------------------|
|-----------5-(5)--5-----------3--------3h=5--x--5-|
|---------------------3h=5-------------------------|
|--3-----3------------------x--------x-------------|
|--------------------------------------------------|


  1.,2.,3.
   |
   /

                                                    4x
|---------------------------------------------------||
|--------------------------------------------------o||
|-12-12-12-12-12--12-12-12-14-14-14-14-14-14-14-14--||
|--x--x--x--x--x---x--x--x--x--x--x--x--x--x--x--x--||
|-10-10-10-10-10--10-10-10-12-12-12-12-12-12-12-12-o||
|---------------------------------------------------||
|
|                                                   4x
|---------------------------------------------------||
|-----------5-(5)--5-----------3--------3h=5--x--5-o||
|---------------------3h=5--------------------------||
|--3-----3------------------x--------x-------------o||
|---------------------------------------------------||


  4.
  G5                 F#5                F5I           E5
   |                  |                  |            |           |
   /                  /                  /            /           /

|---------------------------------------------------|----------|--------*|
|---------------------------------------------------|----------|--------*|
|-12-12-12-12-12--12-14-14-14-14-14--14-17-17-17-17-|----------|--------*|
|--x--x--x--x--x---x--x--x--x--x--x---x--x--x--x--x-|-2--------|-(2)----*|
|-10-10-10-10-10--10-12-12-12-12-12--12-15-15-15-15-|-2--------|-(2)----*|
|---------------------------------------------------|-0--------|-(0)----*|
|
|---------------------------------------------------|----------|--------*|
|-----------5-(5)--5-----------4-(4)--4--------3----|----------|--------*|
|---------------------------------------------------|----------|--------*|
|--3-----3------------2-----2------------1--1-------|-0--------|-(0)----*|
|---------------------------------------------------|----------|--------*|
     
Добавлено: 28.08.2013
Другие материалы по этой песне:

Страница создана 11.06.2012
http://primanota.ru/six-bearded-fish/take-me-to-your-dealer-chords.htm
Привет, Гость.
Предлагаем пройти революционный курс по гитаре.
Подарок от PrimaNota.Ru, забирай!