PrimaNota.ru - самый крупный в мире бесплатный архив песенных текстов, аккордов, табулатур и нот


Six 60 - So High - аккорды и текст, видео

Регистрация Запомнить меня
Войти через:  Facebook Google Twitter Vk Yandex Mail.ru

Six 60 - So High - аккорды и текст, видео

Печатать
Просмотров: 71
Уроки эстрадного вокала в Санкт-Петербурге
So High
Six 60
The intro guitar I couldn't figure out by ear so if you have an idea post in comments.

Here's a video I posted to make for easy learning of the track.

https://www.youtube.com/watch?v=8cXtZS99mIQ

Intro guitar

X2
  Am Bm C   G   F | Dm C  Bm C  Am   
|-----------------|-----------------|
|-1--3--5--12--10-|-6--5--3--5--1---|
|-2--4--5--12--10-|-7--5--4--5--2---|
|-----------------|-----------------|
|-0--2--3--10--8--|-5--3--2--3--0---|
|-----------------|-----------------|

Am
If she was a dime I'd call her on the line
    Bm          C
To come down and put it on me
            F
It caused a scene when she burned into my atmosphere
Am
Been on cloud nine but it's a matter of time
     Bm      C
Till she gets released
      F
Now I see she's been smoking since she landed here

Am                     C
        I know what to say
                   F
But every time I'm with you I want to get it
Every time I miss I want to hit it
I-I
Am                  C
And every other day I need it every other way
                F
Every time I'm with you I want to get it
Every time I miss, I want to hit it

(((For the chorus I switched it to a finger picking style so it wasn't so empty
 - otherwise it's just the intro chords)))                       
|--------------------0----0-----0~-----0----0----0----0-------------|
|----1----1----1----1----1--1---1~----1----1----1----1----1-----1~--|
|---0----0----0----0----0----0--0~---0----0----0----0----0--0---0~--|
|--2----0----0----2----3--------3~--3----2----0----2----2----2--2~--|
|-0----2----3------------------------------------------0--------0~--|
|-------------------------------------------------------------------|

Chorus (Am Bm C   G   F~  Dm C  Bm C  Am)

How we get so (How we get so)   
Hi-i-igh                        
We get so high, wooo            
Hi-i-igh                        
We get so high, So high         

Am
No lie

            Bm             C                  F
It's the hardest damn thing I've tried to leave
F
And I'm hazy, cause I don't want to be that way
Am                            Bm       C    
And it's a sign it's a matter of time till I get relief
      F
Now I see it's so crazy how this happened to be

Am                        Bm
Dollar for a dollar, nickel for a dime
  C
I put it all on the line
                     F
Cause every time I'm with you I want to get it
Every time I miss, I want to hit it
I-I
Am                   C
And every other day, I need it every other way
               F
Every time I'm with you I want to get it
Every time I miss, I want to hit it

Am Bm C   G   F~  Dm C  Bm C  Am
How we get so (How we get so)
Hi-i-i-i-igh
We get so high, wooo
Hi-i-i-i-igh
We get so high, So high

*Instrumental break*
C - Bm - Am - G - F

|-------------------------------1~--|
|---5-----3----1----------------1~--|
|--5-5---4-4--2-2----4------2---2~--|
|-------------------5-5----3-3--3~--|
|-3-----2----0------------------3~--|
|-----------------3------1------1~--|

F
Down, down, down, down, down
(Going down)

          Am
It's been four days, three lives and
             C
One too many times since we last kissed the sky
         F
But this time, we're going down, down, down, down
Till I get so high

Am Bm C   G   F~  Dm C  Bm C  Am
How we get so
Hi-i-igh
We get so high, wooo
Hi-i-igh
We get so high, So high

Am Bm C   G   F~  Dm C  Bm C  Am
So high [x8]
Добавлено: 02.05.2016
Вам также может быть интересно:
Другие материалы по этой песне:
  • Аккорды и текст

Страница создана 02.05.2016
http://primanota.ru/six-60/so-high-chords.htm
Привет, Гость.
Предлагаем пройти революционный курс по гитаре.
Подарок от PrimaNota.Ru, забирай!