PrimaNota.ru - самый крупный в мире бесплатный архив песенных текстов, аккордов, табулатур и нот


Six 60 - Forever - таба, видео

Регистрация Запомнить меня
Войти через:  Facebook Google Twitter Vk Yandex Mail.ru

Six 60 - Forever - таба, видео

Печатать
Просмотров: 223
Уроки эстрадного вокала в Санкт-Петербурге
so i fucked up the tab by putting all the numbers on the E and A strings when 
actually its on the A and D strings. I got too far into it before i realised to change it. 
Six60 FOOOOOOOOOOOOOOOORRRRRRREEEEEEEEVVVVVVVVVEEEEEEEEEEEEERRRRRRRRRRRR


e|---------------------------------------------------------------------------|
B|---------------------------------------------------------------------------|
G|---------------------------------------------------------------------------|
D|---------------------------------------------------------------------------|
A|-----3-----------5-----------7-----7-----7-----7--------10------10------10-|
E|--5-----5-----7-----7-----8-----8-----8-----8-------12------12------12-----|

e|---------------------------------------------------------------------------|
B|---------------------------------------------------------------------------|
G|---------------------------------------------------------------------------|
D|---------------------------------------------------------------------------|
A|-----14-------14------7-----7-----7------14--------------12----------------|
E|-15------15--------8-----8-----8-----15------15------14-------14-----12----|

e|---------------------------------------------------------------------------|
B|---------------------------------------------------------------------------|
G|---------------------------------------------------------------------------|
D|---------------------------------------------------------------------------|
A|-10-----10-----10-----10------2-----------5-----------4-----4-----4-----4--|
E|----12-----12-----12-------3-----3-----7-----7-----5-----5-----5-----5-----|

And Repeat...
Добавлено: 17.04.2012
Другие материалы по этой песне:
  • Аккорды и текст

Страница создана 17.04.2012
http://primanota.ru/six-60/forever-chords.htm
Привет, Гость.
Предлагаем пройти революционный курс по гитаре.
Подарок от PrimaNota.Ru, забирай!