PrimaNota.ru - самый крупный в мире бесплатный архив песенных текстов, аккордов, табулатур и нот


Sitti - Tattooed On My Mind - аккорды и текст, таба, видео

Регистрация Запомнить меня
Войти через:  Facebook Google Twitter Vk Yandex Mail.ru

Sitti - Tattooed On My Mind - аккорды и текст, таба, видео

Печатать
Просмотров: 61
Tattooed On My Mind
Sitti
Standard Tuning: E A D G B E
Chords:

A = e ---------|
    b --5------|
    g --6------|
    d ---------|
    a ---------|
    e --5------|

G#m =  e ---------|
       b --4------|
       g --4------|
       d ---------|
       a ---------|
       e --4------|

F#m = e ---------|
      b --2------|
      g --2------|
      d ---------|
      a ---------|
      e --2------|

EM7 = e --4------|
      b --4------|
      g --4------|
      d --6------|
      a --7------|
      e ---------|

AM7 = e --4------|
      b --5------|
      g --6------|
      d ---------|
      a ---------|
      e --5------|

G#m7 = e --2------|
       b --4------|
       g --4------|
       d ---------|
       a ---------|
       e --4------|

B = e ---------|
    b --7------|
    g --8------|
    d ---------|
    a ---------|
    e --7------|

C#m7 = e ---------|
       b --5------|
       g --4------|
       d ---------|
       a --4------|
       e ---------|

C#m7/A = e ---------|
         b --5------|
         g --4------|
         d ---------|
         a ---------|
         e --5------|
Just listen to the song... :d

Intro: A-Abm-F#m-Abm-A-F#m-A-Abm-A

Em7            A
Maybe you soon forget about all
Em7                         A
or maybe you
Добавлено: 05.10.2013
Вам также может быть интересно:
Другие материалы по этой песне:
  • Аккорды и текст

Страница создана 26.08.2013
http://primanota.ru/sitti/tattooed-on-my-mind-chords.htm
Привет, Гость.
Предлагаем пройти революционный курс по гитаре.
Подарок от PrimaNota.Ru, забирай!