PrimaNota.ru - самый крупный в мире бесплатный архив песенных текстов, аккордов, табулатур и нот


Sisters Of Mercy - Ribbons - текст песни, таба, видео

Регистрация Запомнить меня
Войти через:  Facebook Google Twitter Vk Yandex Mail.ru

Sisters Of Mercy - Ribbons - текст песни, таба, видео

Печатать
Просмотров: 117
Авторы музыки: Andrew Eldritch
Авторы текста: Andrew Eldritch
Tabbed by Afrobill because I couldn't find it on the net anywhere already
tabbed.
Any corrections, mistakes, additions, free beer to:
afrobill@cuttingroomfloor.net


Note the slight change in the rhythm when "her lovers queued up in the
hallway"
it's more or less the same thing but he plays an extra bit first and it is
slightly different :) Have fun people...


Ribbons - Sisters of Mercy - Vision Thing

 4/4


|---------------------------------------------------------------------|
|---------------------------------------------------------------------|
|-------------------6-----4---3---3---------------4-----3-------------|
|-------------------------------------------------------------6---6---|
|---------------------------------------------------------------------|
|-4-4-4-4-4-4-4-4-4---4-4---4---4---4-4-4-4-4-4-4---4-4---4-4---4---4-|



|---------------------------------------------------------------------|
|---------------------------------------------------------------------|
|-------------------6-----4---3-----------------6-----4-----3---3-----|
|---------------------------------------------------------------------|
|---------------------------------------------------------------------|
|-4-4-4-4-4-4-4-4-4---4-4---4---4-4-4-4-4-4-4-4---4-4---4-4---4---4-4-|


|---------------------------------------------------------------------|
|---------------------------------------------------------------------|
|-----------4-----3---------3---------------4-----3-----4-------------|
|-----------------------6-----------------------------------6---------|
|---------------------------------------------------------------------|
|-4-4-4-4-4---4-4---4-4---4---4-4-4-4-4-4-4---4-4---4-4---4---4-4-4-4-|

     
Добавлено: 22.06.2013
Другие материалы по этой песне:
  • Аккорды и текст

Страница создана 05.05.2012
http://primanota.ru/sisters-of-mercy/ribbons-chords.htm
Привет, Гость.
Предлагаем пройти революционный курс по гитаре.
Подарок от PrimaNota.Ru, забирай!