PrimaNota.ru - самый крупный в мире бесплатный архив песенных текстов, аккордов, табулатур и нот


Sisters Of Mercy - I Have Slept With All The Girls In Berlin - таба, видео

Регистрация Запомнить меня
Войти через:  Facebook Google Twitter Vk Yandex Mail.ru

Sisters Of Mercy - I Have Slept With All The Girls In Berlin - таба, видео

Печатать
Просмотров: 136
This is one of the new, unreleased Sisters' songs (a.k.a. “Slept”). The tab is based on
bootleg recording from the Sisters' gig in Athens (04/01/06)so may be not very right,
but it sounds ok. I found the lyrics somewhere on net (I don't remember were) and they seem 
to be ok too. For comments etc. please contact me.

AFTER EDIT: I made some corrections. Now the sound is better and the lyrics are the official.

Tempo : 160 bpm
Guitar 1 : electric
Guitar 2 : 12string acoustic
Tuning : standard


INTRO:
(4 times)

Guitar 1 :

e|-----------------------------------------------|
B|-----------------------------------------------|
G|2---------------5-------------5/---------------|
D|2---------------5-------------5/2--------------|
A|0---------------3-------------3/2--------------|
E|--------------------------------0--------------|


MAIN RIFF (4 times):

Guitar 1 :
|-----------------------------------------|
|----------------------------------0/1/0--|
|-----------------------------------------|
|---2-2-2-2-0-----0-----2-0-2--222--------|
|-0-----------3-3---2-2--------222--------|
|-----------------------------------------|
                               ... 
                                pm

Guitar 2 :

 Am           C         Em


VERSE 1:

Guitar 1 : MAIN RIFF

Guitar 2 : 

Am          C        Em
                  ...Shake me down again
Am          C        Em
                  ...Shake me down and then
Am          C        Em
                  ...Shake me down again
Am           C           Em
  I can wake up in this zoo

          Am         C            
I've been used and abused
Em                   
I've been chased and I've been bruised
Am           C                  Em   
     I can take what I've been to
         Am            C 
I've been naked on the news
          Em             
I've been debased and disabused
Am                C                       Em
   Just leave me downtown, when you're through


CHORUS 1:

Guitar 1 :


e|-1------------0---------------3--------------|
B|-1------------0-------1-------3--------------|
G|-2------------1-------2-------4--------------|
D|-3------------2-------2-------5--------------|
A|-3------------2-------0-------5--------------|
E|-1------------0---------------3--------------|

Guitar 2 :

F
Turn me over
E        Am
 Turn me in
G
I have slept with all the girls in Berlin


VERSE 2:

Guitar 1 : MAIN RIFF

Guitar 2 :

Am                 C
Girls on smoke and girls on weed
Em
Girls on coke and girls on speed
Am                  C 
Girls who choke and girls who smile
Em
Girls who swallow in denial
Am               C
Girls in crisis, ultra-hipped
Em
Weird as Isis, wide as Egypt
Am                C                
Girls in cars and girls on ships
Em
Girls in bars and girls on strips
Am                 C     
Girls on journeys, girls on trips
Em
Girls on gurneys, girls on drips
Am             C
And a girl too far with pale blue lips 
Em
so shake me down again

Am                    C
Girls like you with poison tips
Em
Girls like you like pistol whips
Am               C
Girls in over-zealous green
Em
With a third degree in jealousy so

CHORUS 2:

Guitar 1 : same as CHORUS 1

Guitar 2 :

F
Turn me over
E        Am
 Turn me in
G                                        Am (end)
I have slept with all the girls in Berlin.
Добавлено: 13.05.2012
Другие материалы по этой песне:
  • Аккорды и текст

Страница создана 13.05.2012
http://primanota.ru/sisters-of-mercy/i-have-slept-with-all-the-girls-in-berlin-chords.htm
Привет, Гость.
Предлагаем пройти революционный курс по гитаре.
Подарок от PrimaNota.Ru, забирай!