PrimaNota.ru - самый крупный в мире бесплатный архив песенных текстов, аккордов, табулатур и нот


Sisters Of Mercy - First Last Always - таба, видео

Регистрация Запомнить меня
Войти через:  Facebook Google Twitter Vk Yandex Mail.ru

Sisters Of Mercy - First Last Always - таба, видео

Печатать
Просмотров: 71
Let's get into the groove with the king of Goth...
/Nisse, the man, the myth, the concept. 
Riff 1
e|-----------------------
b|-----------------------
g|-----4--p0--2-2-------- X3
d|-2-2------------4h2p0--
a|-----------------------
e|-----------------------

e|----------0_--0_-------
b|-----------------------
g|-------0--------------- 
d|-0-2h4--2_--2_---------
a|-----------------------
e|-----------------------

Singing starts.
Riff 2
e|--0--------------------
b|-----------------------
g|----------------------- X3
d|-2--2-2-2-4-5----------
a|-----------------------
e|-----------------------

e|-----------------------
b|-----------------------
g|-2-2-2_--2p0----------- 
d|-------------4---------
a|-----------------------
e|-----------------------
Riff 3
e|-----------------------
b|-----------------------
g|---4-0-2_-------------- X3
d|-2-------4h2p0---------
a|-----------------------
e|-----------------------

e|-----------0__0--------
b|-----------------------
g|-------0--------------- 
d|-0 2h4---2_------------
a|-----------------------
e|-----------------------
Chorus
E(no3rd) D(no3rd) E(no3rd) G (no3rd)
     
Добавлено: 13.10.2013
Другие материалы по этой песне:
  • Аккорды и текст

Страница создана 13.10.2013
http://primanota.ru/sisters-of-mercy/first-last-always-chords.htm
Привет, Гость.
Предлагаем пройти революционный курс по гитаре.
Подарок от PrimaNota.Ru, забирай!