PrimaNota.ru - самый крупный в мире бесплатный архив песенных текстов, аккордов, табулатур и нот


Sisters Of Mercy - Adrenochrome - аккорды и текст, таба, бас-таба, видео

Регистрация Запомнить меня
Войти через:  Facebook Google Twitter Vk Yandex Mail.ru

Sisters Of Mercy - Adrenochrome - аккорды и текст, таба, бас-таба, видео

Печатать
Просмотров: 155
Уроки эстрадного вокала в Санкт-Петербурге
Авторы музыки: Andrew Eldritch

Adrenochrome
Sisters Of Mercy
Song: Adrenochrome
Artist: Sisters of Mercy
Tabbed by: C.G. Frankenstein


Intro/Verse
e-------------------------------------------------
B-------------------------------------------------
G--------------------8-7--------------------------
D------------10-9-8*--------8-7---------(repeat)--
A----8-9-10*-------------8*-----------------------
E-8*----------------------------------------------

*: X6

Chorus
e-------------------------------------------------
B-------------------------------------------------
G-------------------------------------------------
D-10-12-13---13---13-13-8-8-8-x-12-10-------------
A-10-12-13---13---13-13-8-8-8-x-12-10-------------
E-8--10-11---11---11-11-6-6-6-x-10-8--------------

after playing the chorus a few times play this once...


e-------------------------------------------------
B-------------------------------------------------
G---------------------12-10-15--------------------
D-10-12-13---13-13-13-12-10-13-8-8-10-------------
A-10-12-13---13-13-13-10-8--13-8-8-10-------------
E-8--10-11---11-11-11----------6-6-8--------------

...and then back to the verse
     
Добавлено: 30.07.2013
Другие материалы по этой песне:
  • Аккорды и текст

Страница создана 01.03.2012
http://primanota.ru/sisters-of-mercy/adrenochrome-chords.htm
Привет, Гость.
Предлагаем пройти революционный курс по гитаре.
Подарок от PrimaNota.Ru, забирай!